Song name
# A B C D E F G H I J K L M N O P Q R S T U V W X Y Z

Laura Marling - One Day Soon tab

-------------------------------------------------------------------------------
                             One Day Soon - Laura Marling
-------------------------------------------------------------------------------

Tuning: CGCGGC

Miss Marling usually slides between some of the chords and the strumming patterns
are often different from what I have put, however I'm fairly certain the notes themselves
are correct. She also seems to place an accent on the bottom C every now and again at
the start of each phrase but I think listening is the best way to work out strumming and 
accents etc.

http://m.youtube.com/watch?v=BQfG-6CpCgA

Introduction:

C|--0---0---0---0---0---0---0---0--|
G|--9---9---9--10--10--10--12--10--|
G|--0---0---0---0---0---0---0---0--|       x2
C|--7---7---7---9---9---9--12---9--|
G|--0---0---0---0---0---0---0---0--|
C|--0---0---0---0---0---0---0---0--|

Verse 1:

Ma, I'm gonna buy you
A new pair of shoes....

C|-0---0---0---0---0---0---0---0---0---0---0---0---0---0---0---0---0---0---0---0---0---0---0---0-|
G|-9---9---9--10--10--10--10--10---9---9---9--10--10--10--10--10---9---9---9--10--10--10--12--10-|
C|-0---0---0---0---0---0---0---0---0---0---0---0---0---0---0---0---0---0---0---0---0---0---0---0-|
C|-7---7---7---9---9---9---9---9---7---7---7---9---9---9---9---9---7---7---7---9---9---9--12---9-|
G|-0---0---0---0---0---0---0---0---0---0---0---0---0---0---0---0---0---0---0---0---0---0---0---0-|
C|-0---0---0---0---0---0---0---0---0---0---0---0---0---0---0---0---0---0---0---0---0---0---0---0-|

x2

Chorus 1:

One day soon I'm gonna be
A movie star....

C|-0---0---0---0---0---0---0---0---0---0---0---0---0---0---0---0---0---0---0---0---0---0---0---0--|
G|-9---9---9--10--10--10--10--10---9---9---9--10--10--10--10--10---9---9---9--10--10--10--12--10--|
G|-0---0---0---0---0---0---0---0---0---0---0---0---0---0---0---0---0---0---0---0---0---0---0---0--|  
C|-7---7---7---9---9---9---9---9---7---7---7---9---9---9---9---9---7---7---7---9---9---9--12---9--|
G|-0---0---0---0---0---0---0---0---0---0---0---0---0---0---0---0---0---0---0---0---0---0---0---0--|
C|-0---0---0---0---0---0---0---0---0---0---0---0---0---0---0---0---0---0---0---0---0---0---0---0--|

x2

I'm gonna buy you peace somehow....

C|--7---7---7---7---5---5---5---5---0---2---4---2---5---4---2---0---0---0---0---0---0---0---0---0--|
G|--7---7---7---7---5---5---5---5---0---0---0---0---0---0---0---0---4---4---4---0---0---0---0---0--|
G|--7---7---7---7---5---5---5---5---0---0---0---0---0---0---0---0---0---0---0---0---0---0---0---0--|
C|--7---7---7---7---5---5---5---5---0---2---4---2---5---4---2---0---6---6---6---0---0---0---0---0--|
G|--7---7---7---7---5---5---5---5---0---0---0---0---0---0---0---0---4---4---4---0---0---0---0---0--|
C|--7---7---7---7---5---5---5---5---0---0---0---0---0---0---0---0---0---0---0---0---0---0---0---0--|

x2

Verse 2, Chorus 2, Verse 3:

Same as original verse and chorus

Ending:

What if peace won't come?....

C|--0---0---0---0---0---0---0---0---0---0---0---0---0---0---0---0--|
G|--0---0---0---0---0---0---0---0---0---0---0---0---0---0---0---0--|
G|--0---0---0---0---0---0---0---0---0---0---0---0---0---0---0---0--|
C|--7---7---9---9--10--10---9---9---7---7---7---7---7---7---7---7--|
G|--9---9--10--10--12--12--10--10---9---9---9---9---9---9---9---9--|
C|--0---0---0---0---0---0---0---0---0---0---0---0---0---0---0---0--|

x2

Oh Mama, I'm gonna run....

C|--7---7---7---7---5---5---5---5---0---2---4---2---5---4---2---0---0---0---0---0---0---0---0---0--|
G|--7---7---7---7---5---5---5---5---0---0---0---0---0---0---0---0---4---4---4---0---0---0---0---0--|
G|--7---7---7---7---5---5---5---5---0---0---0---0---0---0---0---0---0---0---0---0---0---0---0---0--|
C|--7---7---7---7---5---5---5---5---0---2---4---2---5---4---2---0---6---6---6---0---0---0---0---0--|
G|--7---7---7---7---5---5---5---5---0---0---0---0---0---0---0---0---4---4---4---0---0---0---0---0--|
C|--7---7---7---7---5---5---5---5---0---0---0---0---0---0---0---0---0---0---0---0---0---0---0---0--|

x2

************************************
Tap to rate this tab
 
# A B C D E F G H I J K L M N O P Q R S T U V W X Y Z