Song name
# A B C D E F G H I J K L M N O P Q R S T U V W X Y Z

Laura Marling - Bleed Me Dry tab

It's my first tab, for my new favorite song. Add fill-in in VERSE 2 and BRIDGE as you like.

Tuning: CGCGGE
No Capo

INTRO
E|------------------------------------|------------------------------------|
G|----5---7---9---10---9---7---5---5--|----4---4---4---4---5---5---5---5---|
G|------------------------------------|------------------------------------|
C|-------------------------------0----|------5-------5-------0-------0-----|
G|--5---7---9--10---9---7---5---------|--0-------0-------5-------5---------|
C|------------------------------------|------------------------------------|

E|------------------------------------|----------------------------------------------------|
G|----5---7---9---7--10---9---7---5---|----4---4---4---4---5---5---5---5---5---5---5---5---|
G|------------------------------------|----------------------------------------------------|
C|------------------------------------|------5-------5-------0-------0-------0-------0-----|
G|--5---7---9---7--10---9---7---5-----|--0-------0-------5-------5-------5-------5---------|
C|------------------------------------|----------------------------------------------------|

VERSE 1
E|------------------------------------|------------------------------------|
G|----5---7---9---10---9---7---5---5--|----4---4---4---4---5---5---5---5---|
G|------------------------------------|------------------------------------|
C|-------------------------------0----|------5-------5-------0-------0-----|
G|--5---7---9--10---9---7---5---------|--0-------0-------5-------5---------|
C|------------------------------------|------------------------------------|

E|------------------------------------|------------------------------------|
G|----5---7---9--10---9---7---5---5---|----4---4---4---4---5---5---5---5---|
G|------------------------------------|------------------------------------|
C|------------------------------0-----|------5-------5-------0-------0-----|
G|--5---7---9--10---9---7---5---------|--0-------0-------5-------5---------|
C|------------------------------------|------------------------------------|

I have left so many men asking why
Why I go and change my mind overnight

VERSE 2
E|--------5---------7-----8-----------|------------------------------------|
G|------5-----------------------------|----5---5---5---5---5---5---5---5---|
G|----5-------------------------------|------------------------------------|
C|------------------------------------|------0-------0-------0-------0-----|
G|--5---------------------------------|--5-------5-------5-------5---------|
C|------------------------------------|------------------------------------|

E|--------5---------7-----8-----------|------------------------------------|
G|------5-----------------------------|----5---5---5---5---5---5---5---5---|
G|----5-------------------------------|------------------------------------|
C|------------------------------------|------0-------0-------0-------0-----|
G|--5---------------------------------|--5-------5-------5-------5---------|
C|------------------------------------|------------------------------------|

They can't figure me out
They'll end themselves with doubt

VERSE 3
E|------------------------------------|------------------------------------|
G|----4---4---4---4---4---4---4---4---|----5---5---5---5---5---5---5---5---|
G|------------------------------------|------------------------------------|
C|------5-------5-------5-------5-----|------0-------0-------0-------0-----|
G|--0-------0-------0-------0---------|--5-------5-------5-------5---------|
C|------------------------------------|------------------------------------|

E|------------------------------------|------------------------------------|
G|----4---4---4---4---4---4---4---4---|----5---5---5---5---5---5---5---5---|
G|------------------------------------|------------------------------------|
C|------5-------5-------5-------5-----|------0-------0-------0-------0-----|
G|--0-------0-------0-------0---------|--5-------5-------5-------5---------|
C|------------------------------------|------------------------------------|

Well it's love that they sought
And I was taught
Not to give it away unless you're sure

E|------------------------------------|------------------------------------|
G|----5---7---9---7--10---9---7---5---|----4---4---4---4---5---5---5---5---|
G|------------------------------------|------------------------------------|
C|------------------------------------|------5-------5-------0-------0-----|
G|--5---7---9---7--10---9---7---5-----|--0-------0-------5-------5---------|
C|------------------------------------|------------------------------------|

E|------------------------------------|------------------------------------|
G|----5---7---9---10---9---7---5---5--|----4---4---4---4---5---5---5---5---|
G|------------------------------------|------------------------------------|
C|-------------------------------0----|------5-------5-------0-------0-----|
G|--5---7---9--10---9---7---5---------|--0-------0-------5-------5---------|
C|------------------------------------|------------------------------------|

(VERSE 1)
What am I to do if I don't want to be alone?
How can I be sure of what it is I don't yet know?
(VERSE 2)
I can't figure it out
I'll end myself with doubt
(VERSE 3)
Well it's love that I need
And to love you have to bleed
I'm not sure I've got a drop to spare

BRIDGE
E|-12---------------8-----------------|-12---------------8-----------------|
G|-12---------------9-----------------|-12---------------9-----------------|
G|------------------------------------|------------------------------------|
C|------------------------------------|------------------------------------|
G|------------------------------------|------------------------------------|
C|------------------------------------|------------------------------------|

E|-12--11--10---8---7---5---3---1-----|--5---3---1---0-------------------------------------|
G|-12--11--10---9---7---5---4---2-----|--5---4---2---0---------5---5---5---5---5---5---5---|
G|------------------------------------|----------------------------------------------------|
C|------------------------------------|----------------------0-------0-------0-------0-----|
G|------------------------------------|--------------------------5-------5-------5---------|
C|------------------------------------|----------------------------------------------------|
Can you help me?
Can you help me?
Anything you've got is gonna help this penny drop

(VERSE 1)
I'd near done believing when I found you
Given up the ghost of anything that love can do
(VERSE 2)
I couldn't get out of bed
I was all up in my head
(VERSE 3)
Well it's love that I need
And to love you have to bleed
And I'm not sure I've got a drop to spare

(BRIDGE)
Can you help me?
Can you help me?
Anything you've got is gonna help this penny drop

(VERSE 2)
I won't leave you in the night
I won't leave you asking why
(VERSE 3)
If it's love that you need
Your love is safe with me
Just don't go bleeding me dry
(VERSE 3)
Well it's love that you need
Your love is safe with me
Just don't go bleeding me dry

E|------------------------------------|------------------------------------|
G|----5---7---9---10---9---7---5---5--|----4---4---4---4---5---5-----------|
G|------------------------------------|------------------------------------|
C|-------------------------------0----|------5-------5-------0-------------|
G|--5---7---9--10---9---7---5---------|--0-------0-------5-------5---------|
C|------------------------------------|------------------------------------|
Tap to rate this tab
# A B C D E F G H I J K L M N O P Q R S T U V W X Y Z