Song name
# A B C D E F G H I J K L M N O P Q R S T U V W X Y Z

Laura Marling - Born To Love tab

Tuning: CGCGGC

Working it out from ear so will update it tab when I have figured out the other bits.

Intro riff:                             Bridge Chord:
                                        The last chord in held and picked
C----------------------------      -------------------|
G-7-9-7-9-7-9-2/4-4/5----5---      -4-5-10------------|
G----------------------0-----      -------------------|
C--------------------------0-      -2-4-9-------------|
G----------------------------      -------------------|
C---------------------0------      -------------------|

Riff 2:

-9-7-------------------------|
-----9-7-5-7/9---------------|
-----------------------------|
-----------------------------|
-----------------------------|
-----------------------------|


Riff 3:

-------12-14-14b16r14--------|
-12-14-----------------------|
-----------------------------|
-----------------------------|
-----------------------------|
-----------------------------|
Tap to rate this tab
# A B C D E F G H I J K L M N O P Q R S T U V W X Y Z