Laura Narhi - Ma Annan Sut Pois tab

-------------------------------------------------------------------------
MÄ ANNAN SUT POIS – Laura Närhi
-------------------------------------------------------------------------
Tabbed by: Kengus

Laura Närhi official website: www.lauranarhi.fi

Standard tuning
Capo on first fret!

INTRO
  Bm
e|-----------------------------------------------------------------------|
B|---------3-----------------3-----------------3-----------------3-------|
G|-----4-----4-----------4-----4-----------4-----4-----------4-----4-----|
D|---4-----------4-----4-----------4-----4-----------4-----4-----------4-|
A|-2-----2-----2-----2-----2-----2-----2-----2-----2-----2-----2-----2---|
E|-----------------------------------------------------------------------|

VERSE I
   Bm                                  Em
e|---------------------------------------------0-----------------0-------|
B|---------3-----------------3-------------0-----0-----------0-----0-----|
G|-----4-----4-----------4-----4---------0-----------0-----0-----------0-|
D|---4-----------4-----4-----------4---2-----2-----2-----2-----2-----2---|
A|-2-----2-----2-----2-----2-----2---------------------------------------|
E|-----------------------------------------------------------------------|
   Em6/C#            F#+7              Bm                E/G#
e|---------0-----------------------------------------------------4-------|
B|-----0-----0---------------3-----------------3-------------5-----5-----|
G|---0-----------0-------3-----3-----------4-----4---------4-----------4-|
D|---------------------2-----------2-----4-----------4--/6-----6-----6---|
A|-4-----4-----4-----------------------2-----2-----2---------------------|
E|-------------------2-----2-----2---------------------------------------|
   Bm                                  Em
e|---------------------------------------------0-----------------0-------|
B|---------3-----------------3-------------0-----0-----------0-----0-----|
G|-----4-----4-----------4-----4---------0-----------0-----0-----------0-|
D|---4-----------4-----4-----------4---2-----2-----2-----2-----2-----2---|
A|-2-----2-----2-----2-----2-----2---------------------------------------|
E|-----------------------------------------------------------------------|
   Em6/C#            F#+7              Bm
e|---------0-------------------------------------------------------------|
B|-----0-----0---------------3-----------------3-----------------3-------|
G|---0-----------0-------3-----3-----------4-----4-----------4-----4-----|
D|---------------------2-----------2-----4-----------4-----4-------------|
A|/4-----4-----4-----------------------2-----2-----2-----2-----2-----2---|
E|-------------------2-----2-----2---------------------------------------|

CHORUS
   Bm                A/C#    D        Em
e|---------------------------------2----------0------------------0-------|
B|---------3---------------2-----3--------0-----0------------0-----0-----|
G|-----4-----4-----------2-----2--------0---------0--------0---------0---|
D|---4---4-------4-----2-----0--------2-----2-------2-2--2-----2-------2-|
A|-2-----------2-----4---------------------------------------------------|
E|-----------------------------------------------------------------------|
   A9sus4            A/C#              Dmaj7
e|---------------------------------------------2---------------2---------|
B|---------3-----------------2-------------2-----2---------2-----2-------|
G|-----4-----4-----------2-----2---------2---------2-----2---------2-----|
D|---5---------5-------2---------2-----0-----0-------0-0-----0-------0---|
A|-0-----0-------0---4-----4-------4-------------------------------------|
E|-----------------------------------------------------------------------|
   G                               Fdim7             E6sus2
e|-----------------------------------------------------------------------|
B|--------0---------------0------------------------------2---2-----------|
G|----0-----0---------0-----0--------------1-------------------4---4-----|
D|--0---------0-----0---------0--------0-----0---------4---4-----4-------|
A|-----------------------------------2---------2-------------------------|
E|-3----3-------3-3-----3--------0-1-----1-------1---0-------------------|
   Bm                Em6               F#sus4           F#
e|-------------------------------------------2----------------2----------|
B|---------3-------------2---2-------------2---2------------2---2--------|
G|-----4-----4---------0-------0---0-----4-------4---4----3-------3---4--|
D|---4-----------4---2-----2-----2-----4-----------4----4-----------4----|
A|-2-----2-----2---------------------------------------------------------|
E|-----------------------------------------------------------------------|

INTERLUDE
   Em6               Fdim7             F#sus4            F#
e|-------------------------4-----------------2-----------2---------------|
B|-----2---2-------------3---3-------------2---2---------2---------------|
G|---0-------0---0-----4-------4---4-----4-------4---4---3---------------|
D|-2-----2-----2-----3-----------3-----4-----------4-----4---------------|
A|-----------------------------------------------------------------------|
E|-----------------------------------------------------------------------|

VERSE II
   Bm                                  Em
e|---------------------------------------------0-----------------0-------|
B|---------3-----------------3-------------0-----0-----------0-----0-----|
G|-----4-----4-----------4-----4---------0-----------0-----0-----------0-|
D|---4-----------4-----4-----------4---2-----2-----2-----2-----2-----2---|
A|-2-----2-----2-----2-----2-----2---------------------------------------|
E|-----------------------------------------------------------------------|
   Em6/C#            F#+7              Bm                E/G#
e|---------0-----------------------------------------------------4-------|
B|-----0-----0---------------3-----------------3-------------5-----5-----|
G|---0-----------0-------3-----3-----------4-----4---------4-----------4-|
D|---------------------2-----------2-----4-----------4--/6-----6-----6---|
A|/4-----4-----4-----------------------2-----2-----2---------------------|
E|-------------------2-----2-----2---------------------------------------|
   Bm                Bm7/A             Gmaj7             Em
e|---------------------------------------------------------------0-------|
B|-----3---3-------------3---3-------------3---3-------------0-----0-----|
G|-----------4-----------------4-----------------4---------0-----------0-|
D|---4-----------4-----4-----------4-----4-----------4-------------------|
A|-2-----2-----2-----0-----0-----0---------------------------------------|
E|-------------------------------------3-----3-----3-----0-----0-----0---|
   Em6/C#            F#sus4   F#        Bm
e|-------0-----------------2--------2------------------------------------|
B|-----0---0-------------2--------2-------------3-----------------3------|
G|---0-------0---0-----4--------3-----------4-----4-----------4-----4----|
D|----------------------------------------4-----------4-----4-----------4|
A|-4-----------4------------------------2-----2-----2-----2-----2-----2--|
E|-------------------2--------2------------------------------------------|

INTRO
Bm

VERSE I
Bm                        Em
Sammuu, talossamme lamput sammuu
              Em6/C#   F#+7             Bm    E/G#
Autioituneita huoneet   ovat yksi kerrallaan
Bm                       Em
Sängyn laitamilla hiljaa nuokkuu
                Em6/C#  F#+7          Bm
Kaksi uupunutta, onnel--lisia vain unissaan

CHORUS
             Bm                   A/C#  D       Em
Mä annan sut pois, mä päästän sut pois, vaikka sattuu
             A9sus4               A/C#           Dmaj7
Sä annat mut pois, sä päästät mut pois, kaikkeen tottuu
            G                        Fdim7 E6sus2
Hymyillään vaan, ei oo muutakaan enää antaa
      Bm        Em6   F#sus4  F#
Luovutaan toisistamme hiljaa

INTERLUDE
Em6   Fdim7   F#sus4   F#

VERSE II
Bm                          Em
Liikaa, luulin meistä aina liikaa
                  Em6/C#   F#+7         Bm     E/G#
Lupasin mä korjaan kaiken, yhä vain uudestaan
Bm        Bm7/A         Gmaj7
Liukuu sun ote käsistäni vaihtuu
Em               Em6/C#         F#sus4    F#     Bm
Viikot huomaamatta, äänet kuuluu koko ajan hiljempaa

CHORUS
             Bm                   A/C#  D       Em
Mä annan sut pois, mä päästän sut pois, vaikka sattuu
             A9sus4               A/C#           Dmaj7
Sä annat mut pois, sä päästät mut pois, kaikkeen tottuu
            G                        Fdim7 E6sus2
Hymyillään vaan, ei oo muutakaan enää antaa
      Bm        Em6   F#sus4  F#
Luovutaan toisistamme hiljaa

INTERLUDE
Em6   Fdim7   F#sus4   F#

BRIDGE/SOLO

CHORUS
Mä annan sut pois, vaikka sattuu
Mä päästän sut pois, kaikkeen tottuu
Hymyillään vaan, ei oo muutakaan enää antaa
Luovutaan toisistamme hiljaa

CHORUS
Mä annan sut pois...
Sä päästät mut pois...
Mä annan sut pois...

CHORUS (instrumental)

CHORUS (instrumental)

OUTRO
  Em               Fdim7            F#sus4           F#                Bm
e|------0----------------4----------------2----------------2-----------2-|
B|----0---0---0--------3---3---3--------2---2------------2---2---------3-|
G|--0-------0---0----4-------4---4----4-------4---4----3-------3---3---4-|
D|2----------------3----------------4-----------4----4-----------4-----4-|
A|---------------------------------------------------------------------2-|
E|-----------------------------------------------------------------------|

=========================================================================
Tap to rate this tab
 
# A B C D E F G H I J K L M N O P Q R S T U V W X Y Z