Song name
# A B C D E F G H I J K L M N O P Q R S T U V W X Y Z

Laura Pausini - Como Si No Nos Hubiramos Amado tab

-----------------------------------------------------------------------------------------
                  Laura Pausini - Como Si No Nos Hubiéramos Amado
-----------------------------------------------------------------------------------------

Tabbed By: Briska Uzcátegui (User: BriskaStBlyth)

Email: briska2510@hotmail.com

Tunning: E A D G B E


e|--0--0-0-0-0-0-0---------------------|--0--0-0-0-0-0-0---------------------|
B|--0--0-0-2-3-3-3--2-2-2--2-2-3-2-0---|--0--0-0-2-3-3-3--2-2-2--2-2-3-2-0---|
G|--0--0-0-0-0-0-0--3-3-3--3-3-3-3-3---|--0--0-0-0-0-0-0--3-3-3--3-3-3-3-3---|
D|--2--2-2-2-2-2-2--3-3-3--3-3-3-3-3---|--2--2-2-2-2-2-2--3-3-3--3-3-3-3-3---|
A|--2--2-2-2-2-2-2--2-2-2--2-2-2-2-2---|--2--2-2-2-2-2-2--2-2-2--2-2-2-2-2---|
E|-------------------------------------|-------------------------------------|
Tap to rate this tab
# A B C D E F G H I J K L M N O P Q R S T U V W X Y Z