Song name
# A B C D E F G H I J K L M N O P Q R S T U V W X Y Z

Laura Shigihara - Everythings Alright tab

/ = Slide to the fret stated
~ = Vibrato (after playing the note, move your finger in a pulsating, or "shaking" 
manner, to create a type of whammy sounding effect)
^ = Pull string upwards to alter sound
=
Intro- (Before she starts singing, the piano part)
play 2x
=
E----------------------------------1--|
B-------------------------------------|
G--5--7--9--5--4----5--7--9--5--4-----|
D-------------------------------------|
A-------------------------------------|
E-------------------------------------|
=

Lyrical Melody-"Short steps...deep breathes..."
play 2x
=
E--------------------------------------|
B-----5----5-------5-----5---8---5/3~--|
G--5----4-------------7----------------|
D--------------------------------------|
A--------------------------------------|
E--------------------------------------|
=
play 2x
=
E----5----3----------------------|
B--6----5-----------5------------|
G-------------5--7----5-----5/4--|
D--------------------------7-----|
A--------------------------------|
E--------------------------------|
=
Chorus-
=
E-------------------------------------------------------------|
B------------------10-----10-10-12^-----5-5--6-6--5--5~----5--|
G-----------9--12-------------------12------------------7-----|
D--10--12------------9-9--------------------------------------|
A-------------------------------------------------------------|
E-------------------------------------------------------------|
=
=
E----------------------------------------------|
B------------------10-------10-10-12^----------|
G-----------9--12-----------------------12--9--|
D--10--12------------9-9-----------------------|
A----------------------------------------------|
E----------------------------------------------|
=
Continued (don't pause between tabs)
=
E---------------------------------------|
B--11--10--6--5---------5---------------|
G---------------5-5---5---7--5-5---7/5--|
D-------------------7-------------------|
A---------------------------------------|
E---------------------------------------|
=
Repeat entire tab 1x
=
Gradually slow, then let last note ring
=
E------------------------------|
B--6--5--------------5---------|
G---------5--5----5----7--5-5--|
D---------------7--------------|
A------------------------------|
E------------------------------|
=
(End)

Coming Soon: For River
Tap to rate this tab
# A B C D E F G H I J K L M N O P Q R S T U V W X Y Z