Song name
# A B C D E F G H I J K L M N O P Q R S T U V W X Y Z

Laura Shigihara - Everythings Alright tab

 This version is from youtube user called xxbluewallxx.

 Capo on 3rd

 Intro and verse:

 e||--------------0--------------------0-----|
 B||-----------2--0--2-----------------2--2--|
 G||--2-----2-----2-----2-----1-----1--1-----|
 D||-----2--------2--------0-----2-----2-----|
 A||--0-----------------------0--------------|
 E||-----------------------------------------|

 e||--------------0--------------------0--0--|
 B||--2--------2--0--2-----------------2-----|
 G||--2-----2-----2-----2-----1-----1--1-----|
 D||-----2--------2--------0-----2-----2-----|
 A||--0-----------------------0--------------|
 E||-----------------------------------------|

 e||--0--0--0--------|
 B||--5--0--0--------|
 G||--2--1--2--2--1--|
 D||--0--2--4--4--2--|
 A||--0--2--4--4--2--|
 E||-----------------|

 e||--------------------------|
 B||--2-----------5--5--0--0--|
 G||--2-----2-----4--2--2--1--|
 D||-----2-----0--------------|
 A||--0-----------2--4--4--2--|
 E||--------------------------|

 e||--------------------------------------------------------------|
 B||--3--------3-----------3--2--------2-----------2--2-----------|
 G||--4-----4-----4-----4-----2-----2-----2-----2-----2-----2--1--|
 D||-----4-----------4-----------4-----------4-----------4--4--2--|
 A||--2-----------2-----------0-----------0-----------0-----4--2--|
 E||--------------------------------------------------------------|

 e||--------------------------------------------|
 B||--3--------3-----2--------2-----2-----------|
 G||--4-----4-----4--2-----2-----2--2-----2--1--|
 D||-----4--------------4--------------4--4--2--|
 A||--2--------------0--------------0-----4--2--|
 E||--------------------------------------------|

 Chorus (strumming):

 e||--0--0--0--0--|
 B||--5--0--0--0--|
 G||--2--1--2--1--|
 D||--0--2--4--2--|
 A||--0--2--4--2--|
 E||--------------|

 e||--0--0--0--x--0--0--|
 B||--5--0--0--x--0--0--|
 G||--2--1--2--x--2--1--|
 D||--0--2--4--x--4--2--|
 A||--0--2--4--x--4--2--|
 E||--------------------|

 e||--0--5--2--0--2--0--0--2--0--0--2--0--|
 B||--5--5--2--0--0--0--0--2--0--0--0--0--|
 G||--2--2--2--1--1--1--2--2--2--1--1--1--|
 D||--0--0--0--2--2--2--4--4--4--2--2--2--|
 A||--0--0--0--2--2--2--4--4--4--2--2--2--|
 E||--------------------------------------|

 e||--0--0--|
 B||--5--0--|
 G||--2--1--|
 D||--0--2--|
 A||--0--2--|
 E||--------|

 Repeat intro, verse and chorus once again, then play ending:

 e||--------------0--------------------0-----|
 B||-----------2--0--2-----------------2--2--|
 G||--2-----2-----2-----2-----1-----1--1-----|
 D||-----2--------2--------0-----2-----2-----|
 A||--0-----------------------0--------------|
 E||-----------------------------------------|

 e||--------------0--------------------0--0--|
 B||--2--------2--0--2-----------------2--2--|
 G||--2-----2-----2-----2-----1-----1--1--2--|
 D||-----2--------2--------0-----2-----2--2--|
 A||--0-----------------------0-----------0--|
 E||-----------------------------------------|

 That's all. To see it in action see xxbluewallxx's video:
 http://www.youtube.com/watch?v=IFvXIFI3Dg0
Tap to rate this tab
# A B C D E F G H I J K L M N O P Q R S T U V W X Y Z