Song name
# A B C D E F G H I J K L M N O P Q R S T U V W X Y Z

Laura Story - Blessings tab

Watch Video at:
http://www.youtube.com/watch?v=hvtP4TEnGGI&feature=youtu.be

Capo to the 4th fret




 INTRO:
  PINCH                          PINCH                             HAMMER ON
   C                              D/F#                               |
   |                              |                                  |
E---------------------------------------------------------------------------------------------|
B--1-----------3-----0------------------------------------------------------------------------|
G--------0----------------0-------2------------------------2-----------------0----0-----------|
D---------------------------------------0-----------0----------------0h2-----------------2----|
A--3-----------------------------------------0------------------------------------------------|
E---------------------------------2-----------------------------------------------------------|




----------------------------------|
-------------------------3--------|
-------------------0--------------|
------------4---------------------|
------5---------------------------|
----------------------------------|







 PINCH                            PINCH                           PINCH
   C                              D/F#                              C
   |                              |                                 |
E--------------------------------------------------------------------------------------------------|
B--1-----------3-----0------------------------------------------------------------------------3----|
G--------0----------------0-------2------------------------2--------0------0-----------0-----------|
D---------------------------------------0-----------0---------------------------4------------------|
A--3-----------------------------------------0----------------------3------------------------------|
E---------------------------------2----------------------------------------------------------------|
   |                              |                                 |





C     D              Em
We pray for blessings
C     D      Bm
We pray for peace
C     D      Em           D/F#                             C
Comfort for family, protection while we sleep
C     D              Em
We pray for healing
C      D     Bm
For prosperity
C       D              Em                       D/F#
We pray for Your mighty hand to ease our suffering
G        C               D                              Em
All the while, You hear each spoken need
     Am                      G                             D
Yet love is way too much to give us lesser things


                 G
What if your blessings come through raindrops
                 D/F#
What if Your healing comes through tears
                Em                               D                             C
What if the thousand sleepless nights are what it takes to know You're near
Am            G         D              C  < (REPLAY INTRO HERE)
What if trials of this life are Your mercies in disguise
Tap to rate this tab
 
# A B C D E F G H I J K L M N O P Q R S T U V W X Y Z