Guitaretab - guitar tabs
Song name
# A B C D E F G H I J K L M N O P Q R S T U V W X Y Z

Laura Veirs - Magnetized tab

-------------------------------------------------------------------------------
			     MAGNETIZED  Laura Veirs
-------------------------------------------------------------------------------
Tabbed by: Dan
Email:

Tuning: Standard  - CAPO 6th Fret

e|------------------------------------------------------------------|
B|------------------------------------------------------------------|
G|---------0---0---0---0--------0---0---0---0-----------------------|
D|-------2---2---2---2---2----2---2---2---2---2---------------------|
A|------------------------------------------------------------------|
E|----1---------------------1---------------------------------------|

e|------------------------------------------------------------------|
B|------------------------------------------------------------------|
G|---------0---0---0---0--------0---0---0---0-----------------------|
D|-------2---2---2---2---2----0---0---0---0---0---------------------|
A|------------------------------------------------------------------|
E|----3---------------------3---------------------------------------|

That is the first part and here is the next part.  
These are the only two parts in the song  listen to it for when they change.


       Am         Em           C
e|------------------------------------------0-----------------------|
B|-----------1------------------------3-----------------------------|
G|------2----------0-----0------0-----------------------------------|
D|---------2----------2------------2--------------2-----------------|
A|---0----------2------------3-----------3-----3--------------------|
E|------------------------------------------------------------------|
[ Tab from: http://www.guitaretab.com/l/laura-veirs/181966.html ]
e|--------------------------------------3---------------------------|
B|-----------0-----------------------------------0------------------|
G|-----------------0-----0---------------------------------0--------|
D|------------------------------------------------------------------|
A|-----0------------------------2-----------------------------------|
E|--1-----1-----1-----1-----3-------3--------3--------3-------------|

       Am         Em           C
e|------------------------------------------0-----------------------|
B|-----------1------------------------3-----------------------------|
G|------2----------0-----0------0-----------------------------------|
D|---------2----------2------------2--------------2-----------------|
A|---0----------2------------3-----------3-----3--------------------|
E|------------------------------------------------------------------|

e|------------------------------------------------------------------|
B|------------------------------------------------------------------|
G|---------0---0---0---0--------0---0---0---0-----------------------|
D|-------2---2---2---2---2----0---0---0---0---0---------------------|
A|------------------------------------------------------------------|
E|----1---------------------3---------------------------------------|

e|------------------------------------------------------------------|
B|------------------------------------------------------------------|
G|---------0---0---0---0--------0---0---0---0-----------------------|
D|-------0---0---0---0---0----0---0---0---0---0---------------------|
A|------------------------------------------------------------------|
E|----3---------------------3---------------------------------------|



Related for Magnetized tab