Song name
# A B C D E F G H I J K L M N O P Q R S T U V W X Y Z

Laura Veirs - I Can See Your Tracks tab

I don't think this is exactly how she plays it but its probably really close, or
at least this is my best shot at it.

Tips: play with mostly your thumb and your index finger. They should be
alternating pretty evenly though out the whole song.

Tuning: eBF#DAD Capo on the 3rd fret

Intro
e-----------------------------------------------------|
B-----------------------------------------------------|
G-------------0---------------------------------------| x4
D----0---0--0---------0-------------------------------|
A------0--2-------0-2-0-------------------------------|
E--0------0---0---0-0---------------------------------|

Verse
e-------------------------     ----------------------------|
B-------------------------     ----------------------------|
G-------------0-----------     ---------------0------------|
D----0---0--0---------0--- x4  ----0---0---0---------0-----| x4
A------0--2-------0-2-0---     ------0---4-------0-4-0-----|
E--0------0---0---0-0-----     ---5------5----5--5-5-------|

Oh I can see your tracks        But I wont follow them


e-------------------------     -------------------------|
B-------------------------     -------------------------|
G-------------0-----------     ---0-----0--5---------0--|
D----0---0--0---------0--- x4  -----0-2-------0---2--0--| x4
A------0--2-------0-2-0---     --2-2-2-2--2--2--2--2----|
E--0------0---0---0-0-----     -------------------------|

Ill just hope for rain           Or some kind of crazy wind

e-------------|
B-------------|
G--0----0-----|
D--0----0-----|  Then back to the beginning
A--2-/--5-----|
E--2-/--5-----|

To erase them
And chase them into oblivion

Lyrics:

Oh I can see your tracks
But I wont follow them
Ill just hope for rain
Or some kind of crazy wind
To erase them
And chase them into oblivion

Oh I can smell the smoke
From your fire, babe
But Ill leave you alone
And sleep in this lonely cave
And pray for
A storm to scrub this dirt away

Oh I can hear the snakes
Creeping cross the scene
I'm quaking in my boots
But you won't hear me scream
You're half way
Down to New Orleans
You're half way
Down to New Orleans
Tap to rate this tab
 
# A B C D E F G H I J K L M N O P Q R S T U V W X Y Z