Song name
# A B C D E F G H I J K L M N O P Q R S T U V W X Y Z

Laura Veirs - Wrecking tab

E |----------------------------------|
B |--5-----5----------5-----5--------|  
G |----4-------4--------4-------4----| 
D |------6-------6--------6-------6--|
A |--0-------0--------0-------0------|
E |----------------------------------|

E |----------------------------------|
B |--4-----4----------4-----4--------|  
G |----4-------4--------4-------4----| 
D |------4-------4--------4-------4--|
A |--6-------6--------6-------6------|
E |----------------------------------|

E |----------------------------------|
B |--5-----5----------5-----5--------|  
G |----6-------6--------6-------6----| 
D |------6-------6--------6-------6--|
A |--4-------4--------4-------4------|
E |----------------------------------|

E |----------------------------------|
B |--4-----4----------4-----4--------|  
G |----6-------6--------6-------6----| 
D |------7-------7--------7-------7--|
A |--0-------0--------0-------0------|
E |----------------------------------|
Tap to rate this tab
# A B C D E F G H I J K L M N O P Q R S T U V W X Y Z