Song name
# A B C D E F G H I J K L M N O P Q R S T U V W X Y Z

Laura Veirs - Cast A Hook In Me tab

Highlighted       Show chord diagrams
-------------------------------------------------------------------------------
			     Cast A Hook In Me - Laura Veirs
-------------------------------------------------------------------------------
Tabbed by: Dave
Email: pxpx89@hotmail.com

    C#m    A      E    B      A

e|---4-----5------0----2------0----------------------------------------------|
B|---5-----5------0----4------2----------------------------------------------|
G|---4-----6------1----4------2----------------------------------------------|
D|---6-----7------2----4------2----------------------------------------------|
A|---4-----7------2----2------0----------------------------------------------|
E|---------5------0----------------------------------------------------------|

it's convenient to play use both A's but it doesn't really matter


Intro C#m

Verse C#m  A  E  B  A  E  B

Prechorus  A  E  C#m  A  (palm mute last A into chorus)

Chorus 1  C#m  A  C#m  A  E  B

Chorus' 2 and 3  C#m  A  :C#m  A  E  
 E  A  C#m  A  E  B:

I realize this is basic but this is too good a song not to have up at all.  Listen to 
song to get the rhythm right in picking the bass notes and such
Tap to rate this tab
 
# A B C D E F G H I J K L M N O P Q R S T U V W X Y Z