Song name
# A B C D E F G H I J K L M N O P Q R S T U V W X Y Z

Laurel Aitken - Sally Brown tab

#----------------------------------PLEASE NOTE---------------------------------#
#This file is the author's own work and represents their interpretation of the #
#song. You may only use this file for private study, scholarship, or research. #
#------------------------------------------------------------------------------#


----------------------------------------------------------------------------
             Sally Brown by Laurel Aitken . . . tabbed by Bob M
----------------------------------------------------------------------------


official website --> http://www.laurel-aitken.surf3.net/


Intro: -  00:01 '...She boogey, she boogey...'

E|---------------------|------------------------|
B|-------2--------2----|-------3--------3-------|
G|---------2--------2--|---------2--------2-----|
D|---------------------|--0-0--------0----------|
A|--0-0-------0--------|------------------------|
E|---------------------|------------------------|
 |                                              |
E|---------------------|------2--S--2--2--2-----|
B|-----2--S--2--2--2---|------3--S--3--3--3-----|
G|-----2--S--2--2--2---|------2--S--2--2--2-----|
D|-----2--S--2--2--2---|---0--0--S--0--0--0-----|
A|--0--0--S--0--0--0---|------------------------|
E|---------------------|------------------------|


   '...She boogey, she boogey, she boogey down the alley...'

E|---------------------|------------------------|
B|-------2--------2----|-------3--------3-------|
G|---------2--------2--|---------2--------2-----|
D|---------------------|--0-0--------0----------|
A|--0-0-------0--------|------------------------|
E|---------------------|------------------------|
 |                                              |
E|---------------------|------2--S--2--2--2-----|
B|-----2--S--2--2--2---|------3--S--3--3--3-----|
G|-----2--S--2--2--2---|------2--S--2--2--2-----|
D|-----2--S--2--2--2---|---0--0--S--0--0--0-----|
A|--0--0--S--0--0--0---|------------------------|
E|---------------------|------------------------|


 00:09 - '...Let me tell you about Sally Brown...'

E|---------------------|------------------------|
B|-------2--------2----|-------3--------3-------|
G|---------2--------2--|---------2--------2-----|
D|---------------------|--0-0--------0----------|
A|--0-0-------0--------|------------------------|
E|---------------------|------------------------|
 |                                              |
E|---------------------|------2--S--2--2--2-----|
B|-----2--S--2--2--2---|------3--S--3--3--3-----|
G|-----2--S--2--2--2---|------2--S--2--2--2-----|
D|-----2--S--2--2--2---|---0--0--S--0--0--0-----|
A|--0--0--S--0--0--0---|------------------------|
E|---------------------|------------------------|


  '...Let me tell you about Sally Brown...'

E|---------------------|------------------------|
B|-------2--------2----|-------3--------3-------|
G|---------2--------2--|---------2--------2-----|
D|---------------------|--0-0--------0----------|
A|--0-0-------0--------|------------------------|
E|---------------------|------------------------|
 |                                              |
E|---------------------|------2--S--2--2--2-----|
B|-----2--S--2--2--2---|------3--S--3--3--3-----|
G|-----2--S--2--2--2---|------2--S--2--2--2-----|
D|-----2--S--2--2--2---|---0--0--S--0--0--0-----|
A|--0--0--S--0--0--0---|------------------------|
E|---------------------|------------------------|


   '...Sally Brown is a girl in town...'

E|---------------------|------------------------|
B|-------2--------2----|-------3--------3-------|
G|---------2--------2--|---------2--------2-----|
D|---------------------|--0-0--------0----------|
A|--0-0-------0--------|------------------------|
E|---------------------|------------------------|
 |                                              |
E|---------------------|------2--S--2--2--2-----|
B|-----2--S--2--2--2---|------3--S--3--3--3-----|
G|-----2--S--2--2--2---|------2--S--2--2--2-----|
D|-----2--S--2--2--2---|---0--0--S--0--0--0-----|
A|--0--0--S--0--0--0---|------------------------|
E|---------------------|------------------------|


   '...She don't mess around...'

E|---------------------|------------------------|
B|-------2--------2----|-------3--------3-------|
G|---------2--------2--|---------2--------2-----|
D|---------------------|--0-0--------0----------|
A|--0-0-------0--------|------------------------|
E|---------------------|------------------------|
 |                                              |
E|---------------------|------2--S--2--2--2-----|
B|-----2--S--2--2--2---|------3--S--3--3--3-----|
G|-----2--S--2--2--2---|------2--S--2--2--2-----|
D|-----2--S--2--2--2---|---0--0--S--0--0--0-----|
A|--0--0--S--0--0--0---|------------------------|
E|---------------------|------------------------|


E|---------------------|------------------------|
B|-------2--------2----|-------3--------3-------|
G|---------2--------2--|---------2--------2-----|
D|---------------------|--0-0--------0----------|
A|--0-0-------0--------|------------------------|
E|---------------------|------------------------|
 |                                              |
E|---------------------|------2--S--2--2--2-----|
B|-----2--S--2--2--2---|------3--S--3--3--3-----|
G|-----2--S--2--2--2---|------2--S--2--2--2-----|
D|-----2--S--2--2--2---|---0--0--S--0--0--0-----|
A|--0--0--S--0--0--0---|------------------------|
E|---------------------|------------------------|


   '...Let me tell you about Sally Brown...'
  
E|---------------------|------------------------|
B|-------2--------2----|-------3--------3-------|
G|---------2--------2--|---------2--------2-----|
D|---------------------|--0-0--------0----------|
A|--0-0-------0--------|------------------------|
E|---------------------|------------------------|
 |                                              |
E|---------------------|------2--S--2--2--2-----|
B|-----2--S--2--2--2---|------3--S--3--3--3-----|
G|-----2--S--2--2--2---|------2--S--2--2--2-----|
D|-----2--S--2--2--2---|---0--0--S--0--0--0-----|
A|--0--0--S--0--0--0---|------------------------|
E|---------------------|------------------------|


   '...Let me tell you about Sally Brown...'

E|---------------------|------------------------|
B|-------2--------2----|-------3--------3-------|
G|---------2--------2--|---------2--------2-----|
D|---------------------|--0-0--------0----------|
A|--0-0-------0--------|------------------------|
E|---------------------|------------------------|
 |                                              |
E|---------------------|------2--S--2--2--2-----|
B|-----2--S--2--2--2---|------3--S--3--3--3-----|
G|-----2--S--2--2--2---|------2--S--2--2--2-----|
D|-----2--S--2--2--2---|---0--0--S--0--0--0-----|
A|--0--0--S--0--0--0---|------------------------|
E|---------------------|------------------------|


   '...Sally Brown is a girl in town...'
  
E|---------------------|------------------------|
B|-------2--------2----|-------3--------3-------|
G|---------2--------2--|---------2--------2-----|
D|---------------------|--0-0--------0----------|
A|--0-0-------0--------|------------------------|
E|---------------------|------------------------|
 |                                              |
E|---------------------|------2--S--2--2--2-----|
B|-----2--S--2--2--2---|------3--S--3--3--3-----|
G|-----2--S--2--2--2---|------2--S--2--2--2-----|
D|-----2--S--2--2--2---|---0--0--S--0--0--0-----|
A|--0--0--S--0--0--0---|------------------------|
E|---------------------|------------------------|


   '...She don't mess around...'
 
E|---------------------|------------------------|
B|-------2--------2----|-------3--------3-------|
G|---------2--------2--|---------2--------2-----|
D|---------------------|--0-0--------0----------|
A|--0-0-------0--------|------------------------|
E|---------------------|------------------------|
 |                                              |
E|---------------------|------2--S--2--2--2-----|
B|-----2--S--2--2--2---|------3--S--3--3--3-----|
G|-----2--S--2--2--2---|------2--S--2--2--2-----|
D|-----2--S--2--2--2---|---0--0--S--0--0--0-----|
A|--0--0--S--0--0--0---|------------------------|
E|---------------------|------------------------|


'...Sally Brown is a slick chick...'

E|---------------------|------------------------|
B|-------2--------2----|-------3--------3-------|
G|---------2--------2--|---------2--------2-----|
D|---------------------|--0-0--------0----------|
A|--0-0-------0--------|------------------------|
E|---------------------|------------------------|
 |                                              |
E|---------------------|------2--S--2--2--2-----|
B|-----2--S--2--2--2---|------3--S--3--3--3-----|
G|-----2--S--2--2--2---|------2--S--2--2--2-----|
D|-----2--S--2--2--2---|---0--0--S--0--0--0-----|
A|--0--0--S--0--0--0---|------------------------|
E|---------------------|------------------------|


  '...She hits you with a cukumaka stick...'

E|---------------------|------------------------|
B|-------2--------2----|-------3--------3-------|
G|---------2--------2--|---------2--------2-----|
D|---------------------|--0-0--------0----------|
A|--0-0-------0--------|------------------------|
E|---------------------|------------------------|
 |                                              |
E|---------------------|------2--S--2--2--2-----|
B|-----2--S--2--2--2---|------3--S--3--3--3-----|
G|-----2--S--2--2--2---|------2--S--2--2--2-----|
D|-----2--S--2--2--2---|---0--0--S--0--0--0-----|
A|--0--0--S--0--0--0---|------------------------|
E|---------------------|------------------------|


Verse 1 - 00:59 

   '...Cukukukukumaka stick...' 

E|---------------------|------------------------|
B|-------2--------2----|-------3--------3-------|
G|---------2--------2--|---------2--------2-----|
D|---------------------|--0-0--------0----------|
A|--0-0-------0--------|------------------------|
E|---------------------|------------------------|
 |                                              |
E|---------------------|------2--S--2--2--2-----|
B|-----2--S--2--2--2---|------3--S--3--3--3-----|
G|-----2--S--2--2--2---|------2--S--2--2--2-----|
D|-----2--S--2--2--2---|---0--0--S--0--0--0-----|
A|--0--0--S--0--0--0---|------------------------|
E|---------------------|------------------------|


  '...Hits you with a Cukumaka stick...'

E|----------------------------|------------------------|
B|-------2--------------------|-------3--------3-------|
G|---------2----------1-------|---------2--------2-----|
D|----------------------2-----|--0-0--------0----------|
A|--0-0-----------------------|------------------------|
E|---------------0-0----------|------------------------|
 |                                                     |
E|-----------------0-----0----|------2--S--2--2--2-----|
B|-----2--S--2-----0--S--0----|------3--S--3--3--3-----|
G|-----2--S--2-----1--S--1----|------2--S--2--2--2-----|
D|-----2--S--2-----2--S--2----|---0--0--S--0--0--0-----|
A|--0--0--S--0-----2--S--2----|------------------------|
E|---------------0-0-----0----|------------------------|


'...Cukukukukumaka stick...' 

E|---------------------|------------------------|
B|-------2--------2----|-------3--------3-------|
G|---------2--------2--|---------2--------2-----|
D|---------------------|--0-0--------0----------|
A|--0-0-------0--------|------------------------|
E|---------------------|------------------------|
 |                                              |
E|---------------------|------2--S--2--2--2-----|
B|-----2--S--2--2--2---|------3--S--3--3--3-----|
G|-----2--S--2--2--2---|------2--S--2--2--2-----|
D|-----2--S--2--2--2---|---0--0--S--0--0--0-----|
A|--0--0--S--0--0--0---|------------------------|
E|---------------------|------------------------|


  '...Hits you with a Cukumaka stick...'

E|----------------------------|------------------------|
B|-------2--------------------|-------3--------3-------|
G|---------2----------1-------|---------2--------2-----|
D|----------------------2-----|--0-0--------0----------|
A|--0-0-----------------------|------------------------|
E|---------------0-0----------|------------------------|
 |                                                     |
E|-----------------0-----0----|------2--S--2--2--2-----|
B|-----2--S--2-----0--S--0----|------3--S--3--3--3-----|
G|-----2--S--2-----1--S--1----|------2--S--2--2--2-----|
D|-----2--S--2-----2--S--2----|---0--0--S--0--0--0-----|
A|--0--0--S--0-----2--S--2----|------------------------|
E|---------------0-0-----0----|------------------------|


(Same phrase repeated through-out.)


   Music and Lyrics: - 0:01 

      A                       D
She boogey, she boogey, she boogey down the alley
      A                       D 
She boogey, she boogey, she boogey down the alley

 A                      D
Let me tell you about Sally Brown, (Sally Brown)
 A                      D
Let me tell you about Sally Brown, (Sally Brown)
 A                D    
Sally Brown is a girl in town, 
            A          D
She don't mess around

A   D  

 A                      D
Let me tell you about Sally Brown, (Sally Brown)
 A                      D
Let me tell you about Sally Brown, (Sally Brown)
 A                D 
Sally Brown is a girl in town,
 A                D                       A         D
Sally Brown is a girl in town,She don't mess around
 A                          D
Sally Brown is a slick chick,
                          A  
If you mess around with Sally, 
                      D
she hits you with a cukumaka stick


 A         D           A                 E       D
Cukukukukumaka stick, Hits you with a Cukumaka stick
 A         D           A                 E       D 
Cukukukukumaka stick, Hits you with a Cukumaka stick

 A                      D 
Let me tell you about Sally Brown, (Sally Brown)
 A                      D 
Let me tell you about Sally Brown, (Sally Brown)
A                      D 
Let me tell you about Sally Brown, (Sally Brown)
 A                           D 
Sally Brown is a girl in town,
                   A   D
She don't mess around
                   A  
Sally Brown is a slick chick,
 D
If you mess around with Sally, 
     A                D
she hits you with a cukumaka stick


A         D           A                 E       D
Cukukukukumaka stick, Hits you with a Cukumaka stick
 A         D           A                 E       D 
Cukukukukumaka stick, Hits you with a Cukumaka stick


                A  D 
     Sally Brown 
    A       D      A  D   
     Sally Brown
    A       D      A D A D A D A D       
     Sally Brown

      A                   D
Sally Sally Sally, she boogey down the alley
          A                D
Sally Sally Sally, she boogey down the alley
                   A   D 
That is Sally Brown 
                   A   D 
That is Sally Brown

A                      D 
Let me tell you about Sally Brown, (Sally Brown)
 A                      D 
Let me tell you about Sally Brown, (Sally Brown)
 A                D 
Sally Brown is a girl in town,
                   A   D
She don't mess around
                        A  
Sally Brown is a slick chick,
 D
If you mess around with Sally, 
     A                D
she hits you with a cukumaka stick
       A             D
Or if not with a boogey stick


A         D           A                 E       D
Cukukukukumaka stick, Hits you with a Cukumaka stick
 A         D           A                 E       D 
Cukukukukumaka stick, Hits you with a Cukumaka stick


A  D  A        D 
     Sally Brown 
A  D  A        D   
     Sally Brown
A  D  A  D  A  D  A  D
     

A                      D 
Let me tell you about Sally Brown, (Sally Brown)
 A                      D 
Let me tell you about Sally Brown, (Sally Brown)
 A                D 
Sally Brown is a girl in town,
                   A   D
She don't mess around
            A        D
She don't mess around 
               A                 D  
This chick is not the cukumaka chick


A         D           A                 E       D
Cukukukukumaka stick, Hits you with a Cukumaka stick
 A         D           A                 E       D 
Cukukukukumaka stick, Hits you with a Cukumaka stick
A         D           A                 E       D
Cukukukukumaka stick, Hits you with a Cukumaka stick

      A                       D
She boogey, she boogey, she boogey down the alley
      A                       D 
She boogey, she boogey, she boogey down the alley

     A          D 
     Sally Brown 
     A          D   
     Sally Brown

 A                      D
Let me tell you about Sally Brown, (Sally Brown)
 A                      D
Let me tell you about Sally Brown, (Sally Brown)
 A                D    
Sally Brown is a girl in town, 


A         D           A                 E       D
Cukukukukumaka stick, Hits you with a Cukumaka stick
A         D           A                 E       D
Cukukukukumaka stick, Hits you with a Cukumaka stick


FADE OUT. . . 

Tablature Notation:
S - Slap or hit 


e-----------------------------------------------||
b---------------------TAB-----------------------||
g------------------DEDICATED -------------------||
d-----------------TO EADAOIN--------------------||
a--------------------XXXX-----------------------||
e-----------------------------------------------||


My email is ultimate-guitartabber@hotmail.com if you have any questions or
comments but constructive criticism only please.



Tap to rate this tab
 
# A B C D E F G H I J K L M N O P Q R S T U V W X Y Z