Song name
# A B C D E F G H I J K L M N O P Q R S T U V W X Y Z

Lauryn Hill - Tell Him tab

Help us improve GuitareTab! Take a short survey!
Tell Him- Lauryn Hill
Tabbed by Muffy Murphy CLT
(i'm not sure if this is right because i did it by ear)

e-----------------------------------------------------------------|
b-----------------------------------------------------------------|
g----6-------------6---------6---------6--------------------------|
d-------6-----6-------6---------6---------6-----------------------|
a----------4-------------4---------4---------4--------------------|
e-----------------------------------------------------------------|

e-----------------------------------------------------------------|
b-----------------------------------------------------------------|
g---5-------------5--------5--------5-----------------------------|
d------6-----6-------6--------6--------6--------------------------|
a---------4-------------4--------4--------4-----------------------|
e-----------------------------------------------------------------|

e-----------------------------------------------------------------|
b-----------------------------------------------------------------|
g---3-----------3--------3--------3-------------------------------|
d------4-----4-----4--------4--------4----------------------------|
a---------4-----------4--------4--------4-------------------------|
e-----------------------------------------------------------------|

e-----------------------------------------------------------------|
b-----------------------------------------------------------------|
g---5-------------5--------5--------5-----------------------------|
d------6-----6-------6--------6--------6--------------------------|
a---------4-------------4--------4--------4-----------------------|
e-----------------------------------------------------------------|

Let me be patient
Let me be kind
Make me unselfish
Without being blind.....
Related for Tell Him tab