Song name
# A B C D E F G H I J K L M N O P Q R S T U V W X Y Z

Lauryn Hill - Freedom Time tab

Highlighted       Show chord diagrams
----------------------------------------------------------------------------
			     FREEDOM TIME - Lauryn Hill
----------------------------------------------------------------------------
Tabbed by:coque
Email:coquesv@hotmail.com

This is a very easy song but its funny to play and it sounds really good.Its my first 
and I think its 100% correct.Enjoy it!

Chords:
       Cm    Gm    Dm
e|-----3-----3-----5-----|
B|-----4-----3-----6-----|
G|-----5-----3-----7-----|
D|-----5-----5-----7-----|
A|-----3-----5-----5-----|
E|-----3-----3-----5-----|

Intro: Cm - Gm

Verse: Gm - Cm (this are the chords almost the whole song but sometimes she also plays 
same chords of the chorus)

Chorus: Dm - Gm - Cm - Dm
Tap to rate this tab
 
# A B C D E F G H I J K L M N O P Q R S T U V W X Y Z