Song name
# A B C D E F G H I J K L M N O P Q R S T U V W X Y Z

Lawrence Arms - Oh Calcutta tab

The Lawrence Arms - The Devilīs Takin' Names

Tabbed by Max Guhlke
great song
should be 100% right !

4x                      2x
E|-----------111111111-|--8-8-8-8-8-8-33-11111111-|
A|-000000000-333333333-|--8-8-8-8-8-8-33-11111111-|
D|-222222222-333333333-|--9-9-9-9-9-9-44-22222222-|
G|-222222222-222222222-|-101010101010-55-33333333-|
B|-111111111-111111111-|-101010101010-55-33333333-|
E|-000000000-111111111-|--8-8-8-8-8-8-33-11111111-|

2x                   3x                1x
E|-00-00-00---------|-----------------|------------------|
B|-11-11-11---------|-----------------|------------------|
G|-22-22-22---------|-555------222----|-555--------------|
D|-22-22-22-555-333-|-555-5555-222-33-|-555-555-33333333-|
A|-00-00-00-555-333-|-333-5555-022-33-|-333-555-33333333-|
E|----------333-111-|-----3333-----11-|-----333-11111111-|

E|--8---------------------7-8--8--0000000---------------0000000---------|
B|--8------8-10-8-8/------8-8--8--1111111---------------1111111-65^~----|
G|--9------9--9-9-9/---5/-7-9-10--2222222-555-----------2222222-----75--|
D|-10-3----7--7-7-7/-3-5/---7-----2222222-555-555-33333-2222222-------7-|
A|-10-3-00-0--0-0-0--3-3/---------0000000-333-555-33333-0000000---------|
E|--8-5--------------1------------------------333-11111-----------------|
pm      ..
2x                   3x                1x                 2x                        2x
E|------------------|-----------------|------------------|-------------------------|-------|---0~----3~------5~-|
B|------------------|-----------------|------------------|-------------------------|-------|--1~----3~------5~--|
G|-22-22-22---------|-555------222----|-555--------------|-55555-------22222-------|-5-----|-2~----4~------5~---|
D|-22-22-22-555-333-|-555-5555-222-33-|-555-555-33333333-|-55555-55555-22222-33333-|-5-5-3-|------5~------7~----|
A|-00-00-00-555-333-|-333-5555-022-33-|-333-555-33333333-|-33333-55555-00000-33333-|-3-5-3-|-------------7~-----|
E|----------333-111-|-----3333-----11-|-----333-11111111-|-------33333-------11111-|---3-1-|------------5~------|
______________________________________________________________________________________________________________________
The Lawrence Arms - Cut It Up

Tabbed by Max Guhlke (Max.Guhlke@web.de)
These are the single parts of this song
just put this tab together with a nice guitar and a part of your
brain and youīll have a damn good song of Lawrence Armsī new Album
KEEP ON ROCKING !


E|----------|-------------|-------|-------|-----------x---|-------|
B|----------|-------------|-------|-------|-------x---x---|-------|
G|-6/-------|-6-4-2-4-2-4-|-6-4-2-|-6-9-2-|-6-x-2-x-4-x-2-|-6-4-2-|
D|-6/-64646-|-6-4-2-4-2-4-|-6-4-2-|-6-9-2-|-6-x-2-x-4---2-|-6-4-2-|
A|-4/-64646-|-4-2-0-2-0-2-|-4-2-0-|-4-7-0-|-4-x-0---2---0-|-4-2-0-|
E|-4/-42424-|-------------|-------|-------|---------------|-------|

E|----------|-0---4---|-------|------------|
B|----------|-0---5---|-------|------------|
G|-6/-------|-1-4-6-2-|-6-4-2-|-6-4-2-4-6/-|
D|-6/-64646-|-2-4-6-2-|-6-4-2-|-6-4-2-4-6/-|
A|-4/-64646-|-2-2-4-0-|-4-2-0-|-4-2-0-2-4/-|
E|-4/-42424-|-0-------|-------|---------4/-|

Thatīs all ! Pretty easy stuff !
____________________________________________________________________________________
  	 Great Lakes Great Escapes Tab by Lawrence Arms, www.Ultimate-Guitar.Com

The Lawrence Arms - great lakes / great escapes

Tabbed by Max Guhlke

standard tuning

# = play a few times (punk rythm)
* = you have to play this some more times but there is another rythm
    just listen !

E|---0---0---0---0-|
B|----1---1---1---1|
G|-----------------|
D|-22--22--33--33--|
A|-00--00--00--00--|
E|-----------------|
   # # # # #
E|------------------------------|
B|------------------------------|
G|-2---2------99-1010-12-10-10-9|
D|-2-3-2-5-3--xx-x-x---x--x--x-x|
A|-0-3-0-5-3--77-8-8--10--8--8-7|
E|---1---3-1--------------------|
   # # # # # # # # # # # # #
E|---------------------------|
B|---------------------------|
G|-5-----5-----2---5---2-----|
D|-5-5-3-5-5-3-2-5-5-3-2-5-3-|
A|-3-5-3-3-5-3-0-5-3-3-0-5-3-|
E|---3-1---3-1---3---1---3-1-|

E|--------0---------0--------------0-----------------|
B|--3p10h1-1-0h1-1---311-31--3p10h1-1-0-00-0h1p0-0h1-|
G|--------------------------------------------------0|
D|-2~--------------3~-------2~-----------------------|
A|-0~--------------0~-------0~-----------------------|
E|---------------------------------------------------|

E|-0-xxxxxxx-0-xxxxxxxx|
B|-1-xxxxxxx-1-xxxxxxxx|
G|-2-xxxxxxx-2-xxxxxxxx|
D|-2-xxxxxxx-3-xxxxxxxx|
A|-0---------0---------|
E|---------------------|
   # # # # #   # # # # # # # # # # # # #
E|--------------------------------------|
B|--------------------------------------|
G|-2---2-------5-----5-----2---5---2----|
D|-2-3-2-5-3---5-5-3-5-5-3-2-5-5-3-2-5-3|
A|-0-3-0-5-3---3-5-3-3-5-3-0-5-3-3-0-5-3|
E|---1---3-1-----3-1---3-1---3---1---3-1|
   # #    # # # # # # # # #      # # # # # # # # # # # # #
E|-3-5-3----------3---------------------------------------|
B|-x-5-x----------x---------------------------------------|
G|-2-5-2----5-----2---5----------5-----5-----2---5---2----|
D|-2-3-2--3-5-5-3-2-3-5-5-3-5~5--5-5-3-5-5-3-2-5-5-3-2-5-3|
A|-0-3-0--3-3-5-3-0-3-3-5-3-5~5--3-5-3-3-5-3-0-5-3-3-0-5-3|
E|--------1---3-1---1---3-1-3~3----3-1---3-1---3---1---3-1|

E|---3--3-3h5-3-------------|
B|--5--5---------5--65---3--|
G|-5-----4------5-------3-3-|
D|-------------7---5---5----|
A|--------------------------|
E|--------------------------|
                 * # # # # # # # # # # # # #  #
E|---3-0-1---3-0------------------------------3--3/|
B|-5-5-1-1-5-5-1------------------------------1--1/|
G|-5-4-2-2-5-4-2---2---5---2---5---2---5------2--2/|
D|-x-5-2-3-x-5-2-5-2-3-5-5-2-3-5-5-2-3-5-5-3--2--2/|
A|-3-3-0-0-3-3-0-5-0-3-3-5-0-3-3-5-0-3-3-5-3--0--0-|
E|---------------3---1---3---1---3---1---3-1-------|

great song
tab should be right !
__________________________________________________________________________________
  	 Recovering The Opposable Thumb Tab by Lawrence Arms, www.Ultimate-Guitar.Com

Intro:
e{-4~--7-5~-2-4~----}
B{-5~--7-5~-2-4~----}
G{-6~--8-6~-3-5~----}
D{-6~--9-7~-4-6~----}
A{-4~--9-7~-4-6~----}
E{-----7-5~-2-4~----}

then play:
e{-------}
B{-------}
G{-66----}
D{-66-77-}
A{-44-77-}X10
E{----55-}

"Up from these shores"
e{-------------------------------------------}
B{-------------------------------------------}
G{-----------------------------------13b-13b-}
D{-666666------------------------------------}
A{-444444-777777-9999999-77777-99999---------}
E{--------555555-7777777-55555-77777---------}

"Count on your fingers..."
e{--------------------}
B{--------------------}
G{--------------------}
D{-6666-9999----------}
A{-4444-7777-77777777-}X2
E{-----------55555555-}

"And Believe"
e{-----------------------------}
B{-----------------------------}
G{-----------------------------}
D{-----------------------------}
A{11-9-7---99999999-77777777---}
E{-9-7-5---77777777-55555555---}

"Recover, Recover"
e{----------}
B{----------}
G{----------}
D{-66-66-66-}
A{-44-44-44-}X2 A(--4///////////////////////////20-)
E{----------}

"Toby Keiths"
e{-----------------------}
B{-----------------------}
G{-----------------------}
D{-66666666--------------}
A{-44444444-99999-77777--}X2
E{----------77777-55555--}

"THIS IS THE FUCKING SLOP LINE!!"
e{-------------------------}
B{-------------------------}
G{-------------------------}
D{-9999----------9999------}
A{-7777-11111111-7777-7777-}X4
E{-------9-9-9-9------5555-}

"Count on your fingers..."
e{----------}
B{----------}
G{----------}
D{-6~-9~----}
A{-4~-7~-7~-}X2
E{-------5~-}

"And Believe"
e{-----------------------------}
B{-----------------------------}
G{-----------------------------}
D{-----------------------------}
A{11-9-7---99999999-77777777---}
E{-9-7-5---77777777-55555555---}

"Recover, Recover"
e{----------}
B{----------}
G{----------}
D{-66-66-66-}
A{-44-44-44-}X2 A(--4///////////////////////////20-)
E{----------}

"Dear MOther!!!"
e{---------------------------------------}
B{---------------------------------------}
G{---------------------------------------}
D{----------44444444-6666-4444-22222222--}
A{-22222222-22222222-4444-2222-00000000--}X2
E{-00000000------------------------------}

"I do not believe
e{--------}
B{--------}
G{--------}
D{11-9-77-}
A{11-9-77-}
E{-9-7-55-}

"Recover as ONE"
e{-------}
B{-------}
G{-66----}
D{-66-77-}
A{-44-77-}X9 end on a c#
E{----55-}

THat's pretty much it I might be wrong in a couple places
and it's pretty half assed but whatever, I hope you get the Idea
________________________________________________________________________________
The Lawrence Arms - Are You There Yet Margaret Itīs Me God

Tabbed by Max Guhlke (Max.Guhlke@web.de)

Well now the correct version !

3x
E|---0------0-32-|
B|-3---3--3------|
G|--2-2-2--2-2---|
D|---------------|
A|---------------|
E|---------------|

E|---------------------------777777-33333---------------------------|
B|--------------33333--------777777-33333--333333-------------------|
G|-44444--------44444--------777777-00000--444444-------------------|
D|-44444-55555--44444-55555--999999-00000--444444444444555555555555-|
A|-22222-55555--22222-55555--999999-xxxxx--222222444444555555555555-|
E|-------33333--------33333--777777-33333--------222222333333333333-|

E|-77777-33333--77777-33333--77777-33333--------------------------------------|
B|-77777-33333--77777-33333--77777-33333--333333------------------------------|
G|-77777-00000--77777-00000--77777-00000--444444------------------------------|
D|-99999-00000--99999-xxxxx--99999-xxxxx--444444444444555555555555-7----------|
A|-99999-xxxxx--99999-xxxxx--99999-xxxxx--222222444444555555555555-77~7/9-7\5-|
E|-77777-33333--77777-33333--77777-33333--------222222333333333333-5----------|

  3x
E|-------------------------|-------------------------------------|
B|-3333333-----------------|-------------------------------------|
G|-444444477777772222------|4444444777777-12121212121212121212^\-|
D|-44444447777777222255555-|4444444777777--x-x-x-x-x-x-x-x-x-x---|
A|-22222225555555000055555-|2222222555555-10101010101010101010^\-|
E|-------------------33333-|-------------------------------------|

2x
E|---0------0-32-|
B|-3---3--3------|
G|--2-2-2--2-2---|
D|---------------|
A|---------------|
E|---------------|

E|-------33333--77777-33333--77777-33333---------------------------|
B|-------33333--77777-33333--77777-33333--333333-------------------|
G|-------00000--77777-00000--77777-00000--444444-------------------|
D|-99999-00000--99999-00000--99999-00000--444444444444555555555555-|
A|-99999-xxxxx--99999-xxxxx--99999-xxxxx--222222444444555555555555-|
E|-77777-33333--77777-33333--77777-33333--------222222333333333333-|

E|---------------------------------------------------------------------------------------------0~--|
B|---------------------------------------------------------------------------------------------2~--|
G|-44444222222-------------77777999777777777-44444222222-------------7777722222222-----------7~2~4-|
D|-44444222222555555555555-xxxxxxxxxxxxxxxxx-44444222222555555555555-77777222222225555555555-7~2~5-|
A|-22222000000555555555555-55555777555555555-22222000000555555555555-55555000000005555555555-5~0~5-|
E|------------333333333333------------------------------333333333333--------------3333333333-----3-|

               3x
E|------------|-------------------------|-----------------------------------|
B|------------|-3333333-----------------|-----------------------------------|
G|------------|-444444477777772222------|4444444777777-12121212121212121212-|
D|-7----------|-44444447777777222255555-|4444444777777--x-x-x-x-x-x-x-x-x-x-|
A|-77~7/9-7\5-|-22222225555555000055555-|2222222555555-10101010101010101010-|
E|-5----------|-------------------33333-|-----------------------------------|

  3x                        2x                        3x
E|-------------------------|-------------------------|-------------------------|
B|-3333333-----------------|-------------------------|-------------------------|
G|-444444477777772222------|444444477777755555555555-|-44444222222-------------|
D|-44444447777777222255555-|444444477777755555555555-|-44444222222555555555555-|
A|-22222225555555000055555-|222222255555533333333333-|-22222000000555555555555-|
E|-------------------33333-|-------------------------|------------333333333333-|

  2x                           2x
E|----------------------------|-------------------------|
B|----------------------------|-------------------------|
G|-777777444444222222---------|-7777722222222-----------|
D|-77777744444422222255555555-|-77777222222225555555555-|
A|-55555522222200000055555555-|-55555000000005555555555-|
E|-------------------33333333-|--------------3333333333-|

2x
E|---0------0-32-|----3-|
B|-3---3--3------|-33-3-|
G|--2-2-2--2-2---|-44-0-|
D|---------------|-44-0-|
A|---------------|-22-x-|
E|---------------|----3-|
___________________________________________________________________________________________________
The Lawrence Arms - Jumping the Shark

Tabbed by Max Guhlke (Max.Guhlke@web.de)<- also msn

E|-4----------4-4---7-9-----4--|-4--------4-|
B|-5---------5--5---5-------4--|-5-5-5----4-|
G|-6--1-4-6-6---6-6-6------55--|-6-6-2---55-|
D|-6--1---------6-7------6-----|-6-7-x--6---|
A|-4------------4-7------------|-4-7-4------|
E|----------------5-----4------|---5-2-4----|

       2x
E|-44-|-44444-55555-22222-44444-|--------|
B|-55-|-55555-55555-22222-44444-|-5------|
G|-66-|-66666-66666-22222-55555-|-6-4-2--|
D|-66-|-66666-77777-44444-66666-|-6-4-2--|
A|-44-|-44444-77777-44444-66666-|-4-2-0--|
E|----|-------55555-22222-44444-|--------|

4x
E|-00000000--------444------------|
B|-00000000--------555------------|
G|-111111114444444466644422222222-|
D|-222222224444444466644422222222-|
A|-222222222222222244422200000000-|
E|-00000000-----------------------|

E|-------------000---------------000-----------------000---------------|
B|-------------000---------------000-----------------000---------------|
G|-66\-44\-22\-111-444-66\-44\-2-111-444-66\-44\-22\-111-444-66\-44\-2-|
D|-66\-44\-22\-222-444-66\-44\-2-222-444-66\-44\-22\-222-444-66\-44\-2-|
A|-44\-22\-00--222-222-44\-22\-0-222-222-44\-22\-00--222-222-44\-22\-0-|
E|-------------000---------------000-----------------000---------------|

2x
E|-00000000--------444------------|
B|-00000000--------555------------|
G|-111111114444444466644422222222-|
D|-222222224444444466644422222222-|
A|-222222222222222244422200000000-|
E|-00000000-----------------------|

E|-----------------------------|
B|-----------------------------|
G|-66644422222222--6666-6\4/6\-|
D|-66644422222222--6666-6\4/6\-|
A|-44422200000000--4444-4\2/4\-|
E|-----------------------------|
________________________________________________________________________________
  	 Lose Your Illusion Tab by Lawrence Arms, www.Ultimate-Guitar.Com

The Lawrence Arms - Lose Your Illusion 1

Tabbed by Max Guhlke (Max.Guhlke@web.de)

2x
E|-0000000--------------|
B|-0000000---5555555----|
G|-11111114446666666444-|
D|-22222224446666666444-|
A|-22222222224444444222-|
E|-0000000--------------|

2x
E|-----------------------0000000--------------------|
B|-----------------------0000000-----5555555--------|
G|-66xxx664422xxx2224444-11111114444466666662222222-|
D|-66xxx664422xxx2224444-22222224444466666662222222-|
A|-44xxx442200xxx0002222-22222222222244444440000000-|
E|-----------------------0000000--------------------|

2x
E|----------------00000000000-|
B|-555555555------00000000000-|
G|-66666666644444422222222222-|
D|-66666666644444422222222222-|
A|-44444444422222200000000000-|
E|----------------------------|

E|------------------------------------------------------------------------------------------------------------00000000-|
B|------------------------------------------------------------------------------------------------------------22200000-|
G|-9999999444444446666666622222222-99999999444444442222222222-6-4--99999994444444466666666222222-999999444444-22222222-|
D|-9999999444444446666666622222222-99999999444444442222222222-6-4--99999994444444466666666222222-999999444444-22222222-|
A|-7777777222222224444444400000000-77777777222222220000000000-4-2--77777772222222244444444000000-777777222222-00000000-|
E|-0---------------------------------------------------------------0---------------------------------------------------|
    .............................. ..........................       
.. ..  .. .. .. ..

E|------------------4-4--------------------4-4------|
B|-4h5-4h5-4h5-5---7---4h5p4--4h5-4h5-4---7---4h5p4-|
G|--------------4-4--------------------4-4----------|
D|--------------------------------------------------|
A|--------------------------------------------------|
E|--------------------------------------------------|

2x
E|-----------------------0000000--------------------|
B|-----------------------0000000-----5555555--------|
G|-66xxx664422xxx2224444-11111114444466666662222222-|
D|-66xxx664422xxx2224444-22222224444466666662222222-|
A|-44xxx442200xxx0002222-22222222222244444440000000-|
E|-----------------------0000000--------------------|

2x
E|----------------00000000000-|
B|-555555555------00000000000-|
G|-66666666644444422222222222-|
D|-66666666644444422222222222-|
A|-44444444422222200000000000-|
E|----------------------------|

E|-0~---------------------------------------------------------------------------------------------------------44444444-|
B|-0~---------------------------------------------------------------------------------------------------------55555555-|
G|-1111111444444446666666622222222-99999999444444442222222222-6-4--99999994444444466666666222222-999999444444-66666666-|
D|-2222222444444446666666622222222-99999999444444442222222222-6-4--99999994444444466666666222222-999999444444-66666666-|
A|-2222222222222224444444400000000-77777777222222220000000000-4-2--77777772222222244444444000000-777777222222-44444444-|
E|-0000000---------------------------------------------------------0---------------------------------------------------|
    .............................. ..........................       
.. ..  .. .. .. ..

  4x                         3x
E|--------------------------|-0000044444--------------|-00000-----4444444444-|
B|--------------------------|-0000055555--------------|-00000-----5555555555-|
G|-222222226666666644444444-|-11111666664444422222222-|-11111444446666666666-|
D|-222222226666666644444444-|-22222666664444422222222-|-22222444446666666666-|
A|-000000004444444422222222-|-22222444442222200000000-|-22222222224444444444-|
E|--------------------------|-00000-------------------|-00000----------------|

E|-------------------------------------------------------------------------------------------------------------------|
B|-------------------------------------------------------------------------------------------------------------------|
G|-11-131313131313-11-131313119999999-6666644444444444444-11-131313131313-11-131313-1613131313139999988888-8-6-444-4-|
D|--x--x-x-x-x-x-x--x--x-x-x-xxxxxxxx-xxxxxxxxxx222222222--x--x-x-x-x-x-x--x--x-x-x--x-x-x-x-x-x99999xxxxx-x-x-xxx-x-|
A|--9-111111111111--9-111111-97777777-4444422222000000000--9-111111111111--9-111111-1411111111117777766666-6-4-222-2-|
E|-----------------------------------------------------------------------------------------------------------------0-|
______________________________________________________________________________________________________________________________
The Lawrence Arms - Key to the City

Tabbed by Max Guhlke (Max.Guhlke@web.de)<- also msn

E|-33-33-33------|
B|-11-11-11------|
G|-22-22-22------|
D|-22-22-22----3-|
A|-00-00-00----3-|
E|-------------1-|

2x
E|-3-0--3-0--3-0-----------------------|
B|-1-1--1-1--1-1-----------------------|
G|-2-2--2-2--2-2--55555----------------|
D|-2-3--2-3--2-3--55555555553333333333-|
A|-0-3--0-3--0-3--33333555553333333333-|
E|---------------------333331111111111-|

E|--7---7-5--7---7-5----------|
B|-8--10--6-8--10--6----------|
G|----------------------------|
D|---------------------7------|
A|-------------------5-7-5--3-|
E|-------------------3-5-3--1-|

E|-00000000000000-----------00000000000000----------------------------------------------------|
B|-11111111111111-----------11111111111111----------------------------------------------------|
G|-22222222222222-----------22222222222222-----------55555-----22222-----55555-----5555555555-|
D|-222222222222225555533333-222222222222225555533333-5555555555222223333355555555555555555555-|
A|-000000000000005555533333-000000000000005555533333-3333355555000003333333333555553333333333-|
E|---------------3333311111---------------3333311111------33333-----11111-----33333-----------|

                                               2x
E|--------------------------------------------|---33-33-33------|
B|-1313131313131313131313131313131313131313---|---11-11-11------|
G|-1414141414141414141414141414141414141414---|---22-22-22------|
D|-1414141414141414141414141414141414141414-3-|---22-22-22----3-|
A|-1212121212121212121212121212121212121212-3-|---00-00-00----3-|
E|------------------------------------------1-|---------------1-|


E|-3-0-3-0--7---7-5--7---7-5----------|
B|-1-1-1-1-8--10--6-8--10--6----------|
G|-2-2-2-2----------------------------|
D|-2-3-2-3---------------------7------|
A|-0-3-0-3-------------------5-7-5--3-|
E|---------------------------3-5-3--1-|

E|-00000000000000-----------00000000000000----------------------------------------------------|
B|-11111111111111-----------11111111111111----------------------------------------------------|
G|-22222222222222-----------22222222222222-----------55555-----22222-----55555----------------|
D|-222222222222225555533333-222222222222225555533333-5555555555222223333355555555553333333333-|
A|-000000000000005555533333-000000000000005555533333-3333355555000003333333333555553333333333-|
E|---------------3333311111---------------3333311111------33333-----11111-----333331111111111-|

E|-------------------------------------------------------------------------------|
B|-----------------------------------------------------------------13------------|
G|------------1414149999-17171712121212-1414149999-17171712121212--12------------|
D|-3333355555--x-x-xxxxx--x-x-x-x-x-x-x--x-x-xxxxx--x-x-x-x-x-x-x--10---33333333-|
A|-3333355555-1212127777-15151510101010-1212127777-15151510101010-------33333333-|
E|-1111133333-----------------------------------------------------------11111111-|

E|-00000000000000-----------00000000000000----------------------------------------------------------|
B|-11111111111111-----------11111111111111----------------------------------------------------------|
G|-22222222222222-----------22222222222222------------5555-7777-9997-5555--55555-77777-555555555555-|
D|-222222222222225555533333-222222222222225555533333--xxxx-xxxx-xxxx-xxxx--xxxxx-xxxxx-xxxxxxxxxxxx-|
A|-000000000000005555533333-000000000000005555533333--3333-5555-7775-3333--33333-55555-333333333333-|
E|---------------3333311111---------------3333311111------------------------------------------------|

E|--------------------------------------------------------------------------------33-33-33----|
B|--------------------------------------------131313131313131313131313131313------11-11-11----|
G|-55555------------------5555-7777-9997-5555-141414141414141414141414141414------22-22-22----|
D|-5555555555333333333333-xxxx-xxxx-xxxx-xxxx-141414141414141414141414141414-333--22-22-22--3-|
A|-3333355555333333333333-3333-5555-7775-3333-121212121212121212121212121212-333--00-00-00--3-|
E|------33333111111111111----------------------------------------------------111------------1-|
_____________________________________________________________________________________________________________
he Lawrence Arms - Old Dogs Never Die

Tabbed by Max Guhlke (Max.Guhlke@web.de)

                     4x
E|------------------|---------------------------|
B|-3300330033003300-|---------------------------|
G|-0000000000000000-|-----------777777775555555-|
D|-2222222222222222-|-2222255555555555555555555-|
A|-2222222222222222-|-2222255555555555553333333-|
E|-0000000000000000-|-0000033333----------------|

E|--------------------------------------0-----|
B|--------------------------------------2---3-|
G|---0-777555-----777555---0-777555---0-3--00-|
D|-222-777555-575^777555-222-777555-222-0-2-2-|
A|-222-555333-----555333-222-555333-222---3---|
E|-000-------------------000--------000-------|
   ..

E|------------------------------2-5\-----|
B|---------0--------1-0---0-0---3-3\---3-|
G|---------0---0---0------0-0---2-2---00-|
D|-2222222-0-04---2------2--0-0-0-0--2-2-|
A|-2222222-x------3-----2---x-0-0----3---|
E|-0000000-3------------0---3------------|

2x
E|---------------------------|
B|---------------------------|
G|-----------777777775555555-|
D|-2222255555555555555555555-|
A|-2222255555555555553333333-|
E|-0000033333----------------|

E|--------------------------------------0-----|
B|--------------------------------------2---3-|
G|---0-777555-----777555---0-777555---0-3--00-|
D|-222-777555-575^777555-222-777555-222-0-2-2-|
A|-222-555333-----555333-222-555333-222---3---|
E|-000-------------------000--------000-------|
   ..

E|--------------------------------------------------------------------|
B|------------------------------------------------------------1110003-|
G|-99-999999-977975-555555-771112-99-999999-977975-5555555555-0000000-|
D|-xx-xxxxxx-xxxxxx-xxxxxx-xx-x-x-xx-xxxxxx-xxxxxx-xxxxxxxxxx---------|
A|-77-777777-755753-333333-55-910-77-777777-755753-3333333333---------|
E|--------------------------------------------------------------------|

E|--------------------------------------------------------------------------------------------------------------|
B|--------------------------------------------------------------------------------------------------------------|
G|-------------55555577777777------999999995555555555555-------------55555577777777-999997777777775555555555555-|
D|-55555555555555555577777777-55555999999995555555555555-55555555555555555577777777-999997777777775555555555555-|
A|-55555555555533333355555555-55555777777773333333333333-55555555555533333355555555-777775555555553333333333333-|
E|-333333333333---------------33333----------------------333333333333-------------------------------------------|

E|--------------------------------|
B|--------------------------------|
G|------777777775555555555555-----|
D|-55555777777775555555555555-55\-|
A|-55555555555553333333333333-55\-|
E|-33333----------------------33\-|
_________________________________________________________________________________________________________________________
  	 Like A Record Player Tab by Lawrence Arms, www.Ultimate-Guitar.Com

The Lawrence Arms - Like A Record Player

Tabbed by Max Guhlke (Max.Guhlke@web.de)

E|------------------------------------------------------------|
B|------------------------------------------------------------|
G|-55555555------------------------55555555-------------------|
D|-5555555555555555555555553333333-555555555555555555555555-3-|
A|-3333333355555555555555553333333-333333335555555555555555-3-|
E|---------33333333333333331111111---------3333333333333333-1-|
   ............................... ........................

2x
E|--------------------------------------------|
B|--------------------------------------------|
G|-1212121212121212-7777777777777777-55555555-|
D|--x-x-x-x-x-x-x-x-xxxxxxxxxxxxxxxx-xxxxxxxx-|
A|-1010101010101010-5555555555555555-33333333-|
E|--------------------------------------------|

E|---------|-0000000-----------------------0000000---------------------------|
B|-333333--|-1111111-----------------------1111111---------------------------|
G|-222222--|-2222222--------555------------2222222--------55555555-----------|
D|-0000003-|-22222223333333355555533333333-22222223333333355555555555555555\-|
A|-0000003-|-00000003333333333355533333333-00000003333333333333333555555555\-|
E|-------1-|--------11111111---33311111111--------11111111--------333333333\-|

E|-----------------------------------------------------------------|
B|-------------------------------1010---10--------1313^------------|
G|-555222-------555222--------7h9----7h9---7h9-7--1212^-7h9--------|
D|-555222555333-555222555333--------------------10---------10-12---|
A|-333000555333-333000555333------------------------------------10-|
E|-------333111-------333111---------------------------------------|
                .. ..

  2x
E|---------------------------------|-------------------------------------------------------|
B|---------------------------------|-----------------------------------------------1-0-1-1-|
G|-55555555---------------5555-----|----------------55554444222--------------------0-0-2-2-|
D|-5555555555555555333333355555555-|-333333-5555555-555555552223333-333333-5555555-2-2-2-3-|
A|-3333333355555555333333333335555-|-333333-5555555-333322220003333-333333-5555555-3-3-0-3-|
E|---------333333331111111----3333-|-111111-3333333------------1111-111111-3333333---------|
                                      .....  .                       ..... ......

E|-------------------------------------------|
B|-------------------------------------------|
G|-44444444-22222222-44444444-22222222-5-----|
D|-55555555-33333333-55555555-33333333-5-5-3-|
A|-------------------------------------3-5-3-|
E|---------------------------------------3-1-|
   ........ ........ ........ ........

E|-0000000-----------------------0000000-----------------------------------------------------|
B|-1111111-----------------------1111111-----------------------------------------------------|
G|-2222222--------555------------2222222--------55555555-----------555222-------555222-------|
D|-22222223333333355555533333333-22222223333333355555555555555555\-555222555333-555222555333-|
A|-00000003333333333355533333333-00000003333333333333333555555555\-333000555333-333000555333-|
E|--------11111111---33311111111--------11111111--------333333333\-------333111-------333111-|

E|---------------------------------------|
B|---------------------------------------|
G|-555-777-77/9-75--1412109-7-9-7-5-7-5\-|
D|-555-xxx-xx-x-xx---x-x-xx-x-x-x-x-x-5\-|
A|-333-555-55/7-53--1210-87-5/7-5-3-5-3\-|
E|---------------------------------------|
_______________________________________________________________________________________________________________
Tap to rate this tab
# A B C D E F G H I J K L M N O P Q R S T U V W X Y Z