Song name
# A B C D E F G H I J K L M N O P Q R S T U V W X Y Z

Lawson - When She Was Mine tab

use this tab for pretty much the whole song
E|------------------------------------------|
B|-2--3-3-3-3-3-3-3-3-3--2--3-3-3-3-3-3-3-3-|
G|------------------------------------------|
D|-----------------------0------------------|
A|------------------------------------------|
E|-3----------------------------------------|

E|------------------------------------------|
B|-2--3-3-3-3-3-3-3-3-3--2--3-3-3-3-3-3-3-3-|
G|------------------------------------------|
D|------------------------------------------|
A|-2---------------------0------------------|
E|------------------------------------------| 

Verse 1
Everywhere I go
Everything I do
Reminds me of you 
Just a picture on the wall
I'm surrounded by it all
Gotta walk before I fall

Bridge 1
Fall out out on the street
Street light light up the me
So far from where I used to be
When she was mine

Chorus
Everything was easy
Everything was simple
Never felt so good when she was mine
I wanted to remember
And never miss a second
Oh i wish i could forget
Forget when she was...

this is where it changes slightly

E|--------------------------------------------|
B|-2--3-3-3-3--2--3-3-3-3--2--3-3-3-3-3-3-3-3-|
G|--------------------------------------------|
D|-------------0------------------------------|
A|-------------------------0------------------|
E|-3------------------------------------------|x2

Mine, mine, yeah
When she was
Mine, mine, yeah

back to normal

E|------------------------------------------|
B|-2--3-3-3-3-3-3-3-3-3--2--3-3-3-3-3-3-3-3-|
G|------------------------------------------|
D|-----------------------0------------------|
A|------------------------------------------|
E|-3----------------------------------------|

E|------------------------------------------|
B|-2--3-3-3-3-3-3-3-3-3--2--3-3-3-3-3-3-3-3-|
G|------------------------------------------|
D|------------------------------------------|
A|-2---------------------0------------------|
E|------------------------------------------| 

Verse 2
What I miss the most
Was talking up all night
We'd laugh until we cry
Now I'm breaking at the seams
Dropping to my knees
Nothing left of me no

Bridge 2
Like stone turned into dust
My heart wasn't enough
So far from where I used to be
When she was mine

Chorus
Everything was easy
Everything was simple
Never felt so good when she was mine
I wanted to remember
And never miss a second
Oh i wish i could forget
Forget when she was...

changes again

E|--------------------------------------------|
B|-2--3-3-3-3--2--3-3-3-3--2--3-3-3-3-3-3-3-3-|
G|--------------------------------------------|
D|-------------0------------------------------|
A|-------------------------0------------------|
E|-3------------------------------------------|x2

Mine, mine, yeah
When she was
Mine, mine, yeah

Instrumental

E|--------------------------------------------|
B|-2--3-3-3-3--2--3-3-3-3--2--3-3-3-3-3-3-3-3-|
G|--------------------------------------------|
D|-------------0------------------------------|
A|-------------------------0------------------|
E|-3------------------------------------------|x2

Verse 3

E|------------------------------------------|
B|-2--3-3-3-3-3-3-3-3-3--2--3-3-3-3-3-3-3-3-|
G|------------------------------------------|
D|------------------------------------------|
A|-2---------------------0------------------|
E|------------------------------------------|

E|------------------------------------------|
B|-2--3-3-3-3-3-3-3-3-3--2--3-3-3-3-3-3-3-3-|
G|------------------------------------------|
D|------------------------------------------|
A|------------------------------------------|
E|-3---------------------3------------------| 

E|------------------------------------------|
B|-2--3-3-3-3-3-3-3-3-3--2--3-3-3-3-3-3-3-3-|
G|------------------------------------------|
D|------------------------------------------|
A|-2---------------------0------------------|
E|------------------------------------------|

E|---------------------------------------------|
B|-2--3-3-3-3-3-3-3-3-3--2--3-3-3-3-2--3-3-3-3-|
G|---------------------------------------------|
D|----------------------------------0----------|
A|---------------------------------------------|
E|-3---------------------3---------------------| 

               
I wonder if she's out there
I wonder where she goes, she goes
I wonder what she's doing
Will I ever know, yeah

Chorus

E|------------------------------------------|
B|-2--3-3-3-3-3-3-3-3-3--2--3-3-3-3-3-3-3-3-|
G|------------------------------------------|
D|-----------------------0------------------|
A|------------------------------------------|
E|-3----------------------------------------|

E|------------------------------------------|
B|-2--3-3-3-3-3-3-3-3-3--2--3-3-3-3-3-3-3-3-|
G|------------------------------------------|
D|------------------------------------------|
A|-2---------------------0------------------|
E|------------------------------------------| 

Everything was easy
Everything was simple
Never felt so good when she was mine
I wanted to remember
And never miss a second
Oh i wish i could forget
Forget when she was...

changes again

E|--------------------------------------------|
B|-2--3-3-3-3--2--3-3-3-3--2--3-3-3-3-3-3-3-3-|
G|--------------------------------------------|
D|-------------0------------------------------|
A|-------------------------0------------------|
E|-3------------------------------------------|x2

Mine, mine, yeah
When she was
Mine, mine, yeah

Ending

E|--------------------------------------------|
B|-2--3-3-3-3--2--3-3-3-3--2--3-3-3-3-3-3-3-3-|
G|--------------------------------------------|
D|-------------0------------------------------|
A|-------------------------0------------------|
E|-3------------------------------------------|x4

E|--------------------------------------------|
B|-2-----------2-----------2------------------|
G|--------------------------------------------|
D|-------------0------------------------------|
A|-------------------------0------------------|
E|-3------------------------------------------|
Down on my knees
Gotta see her, gotta see her, gotta see her
Tried to forget
But I need her, but I need her, but I need her
Down on my knees
Gotta see her, gotta see her, gotta see her
Tried to forget
But I need her, but I need her
When she was mine
Tap to rate this tab
 
# A B C D E F G H I J K L M N O P Q R S T U V W X Y Z