Song name
# A B C D E F G H I J K L M N O P Q R S T U V W X Y Z

Lawson - Juliet tab

Lawson - Juliet
Tabbed by: sickparamour
Tuning: standard



Guitar I Intro & Verse (0:00)
e|---7--------7--------10--------9------------|
B|---7--------8--------10--------10-----------|
G|---7-(x4)---9-(x4)---11-(x4)---11-(x4)------|
D|---9--------9--------12--------11-----------|
A|---9--------7--------12--------9------------|
E|--------------------------------------------|



Guitar II Intro (0:00)
e|-------------------------------------------|
B|-------------------------------------------|
G|-------------------------------------------|
D|-------------------------------------------|
A|---2-0-2---5-7-------5-5-5---5-------------|
E|---------------0-0-------------2-2-2-------|
     x x x   x x x x   x x x   x x x x



Guitar II Verse (0:06)
e|-------------------------------------------|
B|-------------------------------------------|
G|-------------------------------------------|
D|-------------------------------------------|
A|--0-2-0-2---5-7-------5-5-5---5------------|
E|----------------0-0-------------2-2-2------|
    x x x x   x x x x   x x x   x x x x



Guitar I Alternative Version (0:00)
e|-------------------------------------------|
B|-------------------------------------------|
G|---4--------9------------------11----------|
D|---4-(x4)---9-(x4)---12--------11-(x4)-----|
A|---2--------7--------12-(x4)---9-----------|
E|---------------------10--------------------|



| x   mute note
Tap to rate this tab
# A B C D E F G H I J K L M N O P Q R S T U V W X Y Z