Song name
# A B C D E F G H I J K L M N O P Q R S T U V W X Y Z

Laxnbusto - No Es Massa Tard tab

-------------------------------------------------------------------------------
                    No s massa tard - Lax'n'busto
-------------------------------------------------------------------------------
lbum: Relax
Tabulat per: Ricard Sol
E-mail, comentaris i possibles errors a: riki_calaf@hotmail.com

Acords i lletra d'aquesta magnfica can del nou cd de Lax'n'busto.
A la part de sota hi ha un petit esquema dels acords utilitzats i un exemple de com 
amb la guitarra.

Dom                      Fam
Cansat, cansat de fer-me mal,
               Sib
De viure en un engany,
          Re#Maj7
Cansat de mi,
Re#Maj7/9  Re#Maj7  Dom
Que no s alliberar-me,
               Fam
Fugir daquest desig
                       Solm           Dom
Que s que no s per a mi per no puc evitar.

Dom              Fam
Cansat daquesta soletat,
           Sib
dhaver-me enamorat
            Re#Maj7
Del pas del temps,
Re#Maj7/9  Re#Maj7  Dom
Que fa caure en loblit
                Fam
All que va ser etern.
                    Solm
Cansat de veure-ho clar per no saber
Dom
Escapar.

Dom         Fam        Sib6 Sib         Re#    Re#/Re
No s massa tard per a tot all que s important
Dom       Fam9 Fam  Solm
Estic tan cansat   per he de tornar a
Dom
Comenar.

I quan saturar aquest mal
Que crema i crema tant?
Evaporat,
Que no deixi record
daquells moments tan bons.
Cansat que daquells nvols noms quedi
Fum.

(Els mateixos acords que al principi, per amb un puntejat de guitarra)
(entre () hi ha notes opcionals, que sonen molt fluix o potser ni les toca)
e|--------------------------------------------------------------------------------|
B|--------------------------4---3---1-----------4---3---1-------------------------|
G|------8---7---5------1-(1)-(1)-(1)-(1)----------------------------7---5---7-----|
D|-5-(5)-(5)-(5)-(5)-----------------------3-(3)-(3)-(3)-(3)---5-(5)-(5)-(5)-(5)--|
A|--------------------------------------------------------------------------------|
E|--------------------------------------------------------------------------------|

e|--------------------------1-----------------------------------------------------|
B|------------------------------1---1-----------3---1---3-------------------------|
G|------8---7---5------1-(1)-(1)-(1)-(1)---3-(3)-(3)-(3)-(3)--------8---5---8-----|
D|-5-(5)-(5)-(5)-(5)-------------------------------------------5-(5)-(5)-(5)-(5)--|
A|--------------------------------------------------------------------------------|
E|--------------------------------------------------------------------------------|


Dom         Fam        Sib6 Sib        Re#
No s massa tard per a tot all que s important
             Re#/Re
per mi, com ser feli.
Dom       Fam9 Fam  Solm
Estic tan cansat   per he de tornar a
Dom
Comenar.


(Canvi de T)

Lam   Rem   Sol

           Do                    Do/Si        Lam
Noms vull oblidar i trencar, no recordar mai ms
             Rem     Sol
Per viure en pau.
               Do *            Do/Si *
Cansat dhaver callat, destar emprenyat, de
    Lam *         Sol *
Ser fuga, de ser real perqu


(Acords amb * tocats amb puntejat)
e|------------------------------------|
B|------1-------1-------1-------------|
G|--------0-------0-------2-----0-----|
D|----2-------2-------2-------0---0---|
A|--3-------2-------0-----------------|
E|--------------------------3---------|


Fa     Sol        Do
No puc existir aix.
           Do/Si      Lam       Sol
No puc, no s per mi, tan hum, despullat,
    Fa     Sol      Mim                 Lam
Que no puc existir, no vull pas fer-ho aix.
Fa              Sol
Cansat dhaver somiat


(Torna al t inicial)

 Dom
I quan podr somriure?
Fam
Quan tornar a viure?
Sib            Re#
Quin va ser el pecat
    Re#/Re        Dom
Per sentir aquest desig
              Fam
Que no t cap sentit,
                Solm           Dom
Per viure sense viure tanta soletat?


------------------
Acords Utilitzats
------------------

Dom     Fam    Sib    Re#Maj7   Re#Maj7/9   Solm
--3--  --1--  --1--   ---3---   ---3---     --3--
--4--  --1--  --3--   ---3---   ---1---     --3--
--5--  --1--  --3--   ---3---   ---3---     --3--
--5--  --3--  --3--   ---1---   ---1---     --5--
--3--  --3--  --1--   -------   -------     --5--
-----  --1--  -----   -------   -------     --3--


Sib6      Sib       Re#     Re#/Re   o b  (   Re#    Re#/Re  )    Fam9
---3---  ---1---  ---3---   ---3---        ( ---6---  ---6--- )   -------
---3---  ---3---  ---4---   ---4---        ( ---8---  ---8--- )   ---1---
---3---  ---3---  ---3---   ---3---        ( ---8---  ---8--- )   ---0---
--(3)--  ---3---  ---1---   ---0---        ( ---8---  ---8--- )   ---3---
---1---  ---1---  -------   -------        ( ---6---  ---5--- )   ---3---
-------  -------  -------   -------        ( -------  ------- )   ---1---


Lam     Rem    Sol    Do     Do/Si    Fa
--0--  --1--  --3--  --0--  ---0---  --1--
--1--  --3--  --3--  --1--  ---1---  --1--
--2--  --2--  --0--  --0--  ---0---  --2--
--2--  --0--  --0--  --2--  ---2---  --3--
--0--  -----  --2--  --3--  ---2---  --3--
-----  -----  --3--  -----  -------  --1--


Official webside of the band
http://www.laxnbusto.com/
Tap to rate this tab
# A B C D E F G H I J K L M N O P Q R S T U V W X Y Z