Guitaretab - guitar tabs
Song name
# A B C D E F G H I J K L M N O P Q R S T U V W X Y Z

Laymen Terms - Cellar Doors tab

http://www.suburbanhomerecords.com/bands.php?band=laymensterms

Laymen Terms is an amazing band and since there are only two tabs on the internet, both
for Tired Minds, I figured I'd try to tab what I could. I think this tab is about 95%
correct (I'm not perfect, I miss things).

I'm currently working on "May" from the album "Since Last December", and "Desert Skies"
from "Drive To Nowhere; Verity's Novel". If you have any questions, comments, or know
the tabs to other Laymen Terms songs please contact me at AdrenalineRush_alpha@att.net.
This is my first tab so feedback will be appreciated.

Guitar 1
Rest (0:00  1:12)

Solo 1 (1:12  1:37)
e|-------------------------------------------------------------|
B|-------------------------------------------------------------|
G|-------------------------------------------------------------|
D|-------------------------------5-5-5-5-2h3p2-----------------|
A|-3-3-3-3h5p3-2-3-3-3-3-3-3-3-3---------------5-5-5-5-5-5-5-5-|
D|-------------------------------------------------------------|

e|-------------------------------3-3-3-3-3-3-3-3---------------------|
B|-----------------------------------------------5-5-5-5-5-5-5-5-----|
G|-------------------------------------------------------------------|
D|-------------------------------------------------------------------|
A|-3-3-3-3h5p3-2-3-3-3-3-3-3-3-3-------------------------------------|
D|-------------------------------------------------------------------|

e|-3-3-3-3-3-3-3-3/7-7-7-7-7-7-7-7-----------------------------------|
B|-------------------------------------------------------------------|
G|----------------------------------2-2-2-2-4-4-45~--5-5-5-----------|
D|-------------------------------------------------------------------|
A|-------------------------------------------------------------------|
D|-------------------------------------------------------------------|
[ Tab from: http://www.guitaretab.com/l/laymen-terms/66861.html ]
Rhythm (1:38  2:07)
e|--------------------|  |-----------|
B|--------------------|  |-----------|
G|-5-5--7-7-----------|x3|-----------| Whole part
D|-5-5--5-5--7-7--7-7-|  |-3333-5555-|   x2
A|-3-3--5-5--7-7--7-7-|  |-3333-5555-|
D|------5-5--7-7--7-7-|  |-3333-5555-|

Solo 2 (2:07  end)
e|-------------15-------------15-------------15-------------15-|
B|-12h13p12h13----12h13p12h13----12h13p12h13----12h13p12h13----|
G|-------------------------------------------------------------| x2
D|-------------------------------------------------------------|
A|-------------------------------------------------------------|
D|-------------------------------------------------------------|

e|-------------15----------------------15----------|
B|-12h13p12h13----13p12h13-12h13p12h13----13p12h13-|
G|-------------------------------------------------| x8
D|-------------------------------------------------|
A|-------------------------------------------------|
D|-------------------------------------------------|

e|-------15-------15-------15-------15-|
B|-12h13----12h13----12h13----12h13----|
G|-------------------------------------| x4
D|-------------------------------------|
A|-------------------------------------|
D|-------------------------------------|

e|-15-15-15-15-15-15-15-15-15/17-17-17-17-17-17-17-17/19-19-19-|
B|-------------------------------------------------------------|
G|-------------------------------------------------------------|
D|-------------------------------------------------------------|
A|-------------------------------------------------------------|
D|-------------------------------------------------------------|

e|-19-19-19-19-19/20-20-20-20-20-20-20-|
B|-------------------------------------|
G|-------------------------------------|
D|-------------------------------------|
A|-------------------------------------|
D|-------------------------------------|

e|-15-17-15-19-17-15-15-17-15-19-17-15-|
B|-------------------------------------|
G|-------------------------------------|
D|-------------------------------------|
A|-------------------------------------|
D|-------------------------------------|

e|-15-20-19-17-15-15-20-19-17-15~-15/17~-|
B|---------------------------------------|
G|---------------------------------------|
D|---------------------------------------|
A|---------------------------------------|
D|---------------------------------------|