Guitaretab - guitar tabs
Song name
# A B C D E F G H I J K L M N O P Q R S T U V W X Y Z

Lazaros Dog - Home Entertainment System tab

Home Entertainment System
L A Z A R O ' S   D O G
Tabbed by Aaron Bridgeman (leprosy_head@hotmail.com)

http://bogans.arecool.net

KEY:
pm. = palm mute

CHORUS:
e|------------------------|
B|------------------------|
G|-9--9-------------------|
D|-9--9--7--7--5--5--9--9-|
A|-7--7--7--7--5--5--9--9-|
E|-------5--5--3--3--7--7-|
[ Tab from: http://www.guitaretab.com/l/lazaros-dog/40708.html ]
PRE-CHORUS:
e|---------------------------------|
B|---------------------------------|
G|---------------------------------|
D|-9-9-9-9-------------------------|
A|-7-7-7-7-7-7-7-7-5-5-5-5-9-9-9-9-|
E|---------5-5-5-5-3-3-3-3-7-7-7-7-|
pm . .   . . .   . . .   . . .   .

That's pretty much it, just work down on the last chorus,
and 2 E5's finish the song