Song name
# A B C D E F G H I J K L M N O P Q R S T U V W X Y Z

Lazarus Ad - Thou Shall Not Fear tab

Guitar 1:
e---------------------------------|
B---------------------------------|
G---------------------------------|
D-9-9--1010-9-9--7-7--12-12--1010-|
A-7-7--8-8--7-7--5-5--10-10--9-9--|
D-0-0--0-0--0-0--0-0--0--0---0-0--|

Guitar 2:
e-------------------------------|
B-------------------------------|
G-------------------------------|
D-9~~~~~~~~~~~~~~~~~~~12-----10-|
A-7~~~~~~~~~~~~~~~~~~~10-----9--|
D-0~~~~~~~~~~~~~~~~~~~0------0--|

Then
Guitar 1 and 2:
e---------------------------------|
B---------------------------------|
G---------------------------------|
D-9-9--1010-9-9--7-7--12-12--1010-|
A-7-7--8-8--7-7--5-5--10-10--9-9--|
D-0-0--0-0--0-0--0-0--0--0---0-0--|



thats it, i cant get the solo yet...but ill figure it out

this is a kick @ss song
Tap to rate this tab
# A B C D E F G H I J K L M N O P Q R S T U V W X Y Z