Song name
# A B C D E F G H I J K L M N O P Q R S T U V W X Y Z

Lazarus Ad - Thou Shall Not Fear tab

Guitar 1:
E-----------------------------|
B-----------------------------|
G-----------------------------|
D-7-7--8-8--7-7--7-7--10108-8-|
A-5-5--5-5--5-5--4-4--8-8-6-6-|
D-0-0--0-0--0-0--0-0----------|

E-----------------------------|
B-----------------------------|
G-----------------------------|
D-7-7--8-8--7-7--7-7--10108-8-|
A-5-5--5-5--5-5--4-4--8-8-6-6-|
D-0-0--0-0--0-0--0-0----------|

Guitar 2:
E---------------------------|
B---------------------------|
G---------------------------|
D-7~~~~~~~~~~~~~~~~~~~10--8-|
A-5~~~~~~~~~~~~~~~~~~~8---6-|
D-0~~~~~~~~~~~~~~~~~~~0---0-|

E-----------------------------|
B-----------------------------|
G-----------------------------|
D-7~~~~~~~~~~~~~~~~~~~10108-8-|
A-5~~~~~~~~~~~~~~~~~~~8-8-6-6-|
D-0~~~~~~~~~~~~~~~~~~~0-0-0-0-|

Then,
Both Guitars:
E-----------------------------|
B-----------------------------|
G-----------------------------|
D-7-7--8-8--7-7--7-7--10108-8-|
A-5-5--5-5--5-5--4-4--8-8-6-6-|
D-0-0--0-0--0-0--0-0----------|


Tap to rate this tab
# A B C D E F G H I J K L M N O P Q R S T U V W X Y Z