Song name
# A B C D E F G H I J K L M N O P Q R S T U V W X Y Z

Lazarus Ad - Black Rivers Flow tab

First tab ever done so dont be too harsh lol puttin it on here as im learning it so yea
i will fix it and if you have any requests email me at Pantera_rulez78@hotmail.com (yea
pantera kicks ass R.I.P. Dime)

not sure the clean intro yet but once its figured out it will be up ASAP \m/



Distortion Beginning:
Eb|----------------------------------|
Bb|----------------------------------|
Gb|----------------------------------|
Db|-7------7-7-7-6----3---3---3------|   x8
Ab|-5------5-5-5-4----1---4---1------|
Db|---0000---------00---0---0--------|
      ....         ..   .   .


Eb|----------|
Bb|----------|
Gb|----7-----|
Db|----7-----| play directly after last ^ and let that puppy ring
Ab|----0-----|
Db|----------|

Eb|----------------------------------|
Bb|----------------------------------|
Gb|----------------------------------|
Db|----------------3p0---------------|
Ab|--5p0----4p0---------4p0--5p0-----|
Db|------00-----00-------------------|
         ..     ..

Eb|--------------------------|
Bb|--------------------------|
Gb|--------------------------| quick ass chugging
Db|--------------------------|
Ab|--------------------------|
Db|--00-00-00-00-00-00-00-00-|
     .. .. .. .. .. .. .. ..

Eb|------------------------------------|
Bb|------------------------------------|
Gb|------------------------------------|
Db|------------------------------------|
Ab|--4p0----3p0------5p0--4p0--5p0-----|
Db|------00------00--------------------|
         ..      ..


Eb|--------------------------|
Bb|--------------------------|
Gb|--------------------------| quick ass chugging again
Db|--------------------------|
Ab|--------------------------|
Db|--00-00-00-00-00-00-00-00-|
     .. .. .. .. .. .. .. ..

Eb|-------------|
Bb|-------------|
Gb|-------------|
Db|--7--6--5----| x4
Ab|--5--4--3----|
Db|-------------|

goes back to the pull offs part but the open chugs is half time and sounds ballin sorry
if the tab sucks but basically i kept my ass up longer to write em out haha hope it
helps and shall be adding more to it soon including the intro .. any corrections will be 
appreciated and lets make this tab happen because the song dominates and there is NO other
tabs of this puppy anywhere yet ... goin to sleep damn it lol
Tap to rate this tab
# A B C D E F G H I J K L M N O P Q R S T U V W X Y Z