Song name
# A B C D E F G H I J K L M N O P Q R S T U V W X Y Z

Laziest Men On Mars - All Your Base Are Belong To Us tab

These are the tabs for FLASH hit All Your Base are belong to us. You can
check out the video here: http://www.planettribes.com/allyourbase/

Pre-Chorus 2X, and played through chorus

e|-------------------------------------------------------------------------|
B|-------------------------------------------------------------------------|
G|-------------------------------------------------------------------------|
D|-3-3-33--5-5-55-5--7-7-77-7-7-77-7---------------------------------------|
A|-1-1-11--3-3-33-3--5-5-55-5-5-55-5---------------------------------------|
E|-------------------------------------------------------------------------|


Chorus:

e|-------------------------------------------------------------------------|
B|-6--5--8--6--3-3------6--5-8-11--13-11--8--10----------------------------|
G|------------------------------------------------10--7--------------------|
D|-------------------------------------------------------------------------|
A|-------------------------------------------------------------------------|
E|-------------------------------------------------------------------------|
Tap to rate this tab
# A B C D E F G H I J K L M N O P Q R S T U V W X Y Z