Song name
# A B C D E F G H I J K L M N O P Q R S T U V W X Y Z

Lazytown - Bing Bang Rock tab

Alright, take note that I'm not exactly sure how accurate this is,
but I figure I'd post it to see if anyone can help improvise it.
That said, here's what I have so far for 
Lazytown- Bing Bang Rock.(It sounds a little off to me)
The song is in standard tuning and is just basic power chords.

Key:
/-slide
~-Let Ring



e|-------------------------------------------------------------------------|
b|-7-7-7-7/10-10/7/10---12-12-12-12/14-14/12/14/77-------------------------|
G|-7-7-7-7/10-10/7/10---12-12-12-12/14-14/12/14/77-------------------------|
D|-5-5-5-5/8--8/ 5/8----10-10-10-10/12-12/10/12/55-------------------------|
A|-------------------------------------------------------------------------|
E|-------------------------------------------------------------------------|


e|-------------------------------------------------------------------------|
b|-7-7-7-7/10-10/7/10---12-12-12-12/14-14/12/14/77-------------------------|
G|-7-7-7-7/10-10/7/10---12-12-12-12/14-14/12/14/77-------------------------|
D|-5-5-5-5/8--8/ 5/8----10-10-10-10/12-12/10/12/55-------------------------|
A|-------------------------------------------------------------------------|
E|-------------------------------------------------------------------------|


e|-------------------------------------------------------------------------|
b|-7-7-7-7/10-10/7/10---12-12-12-12/14-14/12/14/77-------------------------|
G|-7-7-7-7/10-10/7/10---12-12-12-12/14-14/12/14/77-------------------------|
D|-5-5-5-5/8--8/ 5/8----10-10-10-10/12-12/10/12/55-------------------------|
A|-------------------------------------------------------------------------|
E|-------------------------------------------------------------------------|


e|-------------------------------------------------------------------------|
b|-7-7-7-7/10-10/7/10---12-12-12-12/14-14/12/14/77-------------------------|
G|-7-7-7-7/10-10/7/10---12-12-12-12/14-14/12/14/77-------------------------|
D|-5-5-5-5/8--8/ 5/8----10-10-10-10/12-12/10/12/55-------------------------|
A|-------------------------------------------------------------------------|
E|-------------------------------------------------------------------------|


e|-------------------------------------------------------------------------|
b|-77-7-7------------------------------------------------------------------|
G|-77-7-7------5/10--------------------------------------------------------|
D|-55-5-5------------------------------------------------------------------|
A|-------------------------------------------------------------------------|
E|-------------------------------------------------------------------------|

e|-------------------------------------------------------------------------|
b|-7-7-7-7/10-10/7/10---12-12-12-12/14-14/12/14/77-------------------------|
G|-7-7-7-7/10-10/7/10---12-12-12-12/14-14/12/14/77-------------------------|
D|-5-5-5-5/8--8/ 5/8----10-10-10-10/12-12/10/12/55-------------------------|
A|-------------------------------------------------------------------------|
E|-------------------------------------------------------------------------|


e|-------------------------------------------------------------------------|
b|-7-7-7-7/10-10/7/10---12-12-12-12/14-14/12/14/7~-------------------------|
G|-7-7-7-7/10-10/7/10---12-12-12-12/14-14/12/14/7~-------------------------|
D|-5-5-5-5/8--8/ 5/8----10-10-10-10/12-12/10/12/5~-------------------------|
A|-------------------------------------------------------------------------|
E|-------------------------------------------------------------------------|



Tap to rate this tab
# A B C D E F G H I J K L M N O P Q R S T U V W X Y Z