Song name
# A B C D E F G H I J K L M N O P Q R S T U V W X Y Z

Lcd Soundsystem - Jump Into The Fire tab

LCD Soundsystem - Jump Into The Fire (Harry Nilsson cover)

Really easy but fun to play, learnt from their final MSG show.

STANDARD TUNING

Intro/Verse:
|------x-x-x-x------|
|--7-7-x-x-x-x-8-7--|
|--7-7-x-x-x-x-7-7--|
|--7-7-x-x-x-x-7-7--|
|--5-5-x-x-x-x-5-5--|
|------x-x-x-x------|
REPEAT THROUGHOUT VERSES

Solo (not perfect but listen to the song to get an idea):
|-------------------------------------------|
|-----10-----10-----10-----10--10--10--10---|
|--12-12b-12-12b-12-12b-12-12b-12b-12b-12b--|
|-------------------------------------------|
|-------------------------------------------|
|-------------------------------------------|
REPEAT FOR SECOND SOLO

Outro:
|---------------------------|
|--7-7-7-7-7-7-7-7-7-7-8-7--|
|--7-7-7-7-7-7-7-7-7-7-7-7--|
|--7-7-7-7-7-7-7-7-7-7-7-7--|
|--5-5-5-5-5-5-5-5-5-5-5-5--|
|---------------------------|

That's it all there is to it, really.  Thanks for reading.
Tap to rate this tab
# A B C D E F G H I J K L M N O P Q R S T U V W X Y Z