Song name
# A B C D E F G H I J K L M N O P Q R S T U V W X Y Z

Lcd Soundsystem - Never As Tired As When Im Waking Up chords

Highlighted       Show chord diagrams
Verse:
A
Wasted and complacent
                    F
And you about the same
    A
But still I want to get it
              F
On with you tonight
A
When I was a little boy
                   F
I lay down in the grass
    A
I'm sure you'd feel the same 
                           F
If I could fuck you here tonight


Chorus:
        A                      A7           F#m      F
But I'm never as tired as when I'm waking up
    A                      A7           F#m      F
I'm never as tired as when I'm waking up
       A            A7    F#m   F
But it feels like I'm in love again
      A            A7    F#m   F
Oh it feels like I'm in love again
          A            A7    F#m   F
Though it feels like I'm in love again
                A    A7    F#m     F  
With what you do


Verse 2:
A
If we made it happen
                        F
I'm sure what we would do
A
Run outside and fuck someone
                           F
To show it didn't mean a thing
A
Seems it could be simple
                     F
If I could just grow up
A
Never gonna get it now
                 F
Cause I'll never grow


Chorus


Coda:
              A    A7    F#m
But not with you
         F
(keep on telling myself it's true)
x8




Chorus riff:
e|-----------------------------------|
B|-----------------------------------|
G|-----------------------------------|
D|----7---------7--------7-------7---|
A|7-7---7-10-10---10-9-9---9-8-8---8-|
E|-----------------------------------|


Coda riff:
e|----------7~--5~--7b8-7-5-------|
B|--------5-----------------6-5---|
G|7---6-7-------------------------|
D|--------------------------------|
A|--------------------------------|
E|--------------------------------|
Tap to rate this tab
# A B C D E F G H I J K L M N O P Q R S T U V W X Y Z