Song name
# A B C D E F G H I J K L M N O P Q R S T U V W X Y Z

Lcd Soundsystem - Daft Punk Is Playing At My House tab

Song:      Daft Punk Is Playing At My House
Artist:    LCD Sounudsystem
Tabbed By: Daniel Mac Donagh (dmacdonagh@iolfree.ie)

Tuning:    Standard

||-----------------||
||-----------------||
|| /  slide up     ||
|| \  slide down   ||
|| h  hammer-on    ||
|| p  pull-off     ||
|| ~  vibrato      ||
|| +  harmonic     ||
|| x  Mute note    ||
||-----------------||
||-----------------||


Intro/Main Riff:
e||--------------------------||
B||--------------------------||
G||--------------------7--5--||
D||7-x-x-7-x-x-7-x-x-7-7--5--||
A||7-x-x-7-x-x-7-x-x-7-5--3--||
E||5-x-x-5-x-x-5-x-x-5-------||


''I bought 15 cases for my house''
''You've got to set them up kid''
   + + + + + + + + + + + + +
e||--------------------------||
B||--------------------------||
G||--------------------------||
D||5-5-5-5-5-5-5-5-5-5-5-5-5-||
A||5-5-5-5-5-5-5-5-5-5-5-5-5-||
E||5-5-5-5-5-5-5-5-5-5-5-5-5-||

These are riffs in the song. Listen to the song to find out the exact order.
Daniel :-)
Tap to rate this tab
 
# A B C D E F G H I J K L M N O P Q R S T U V W X Y Z