Song name
# A B C D E F G H I J K L M N O P Q R S T U V W X Y Z

Lds - Army Of Helaman tab

I was looking for this tab but could not find it and other people have been to. So 
I made one my self and it sounds pretty good.

Tuning:Standard

e|---------------------------------------------------------------------------|
B|--0-1-3-3-1-3-5-3-3-8-8-7-3-3-5-3-1-3--------------------------------------|
G|-0-------------------------------------------------------------------------|
D|---------------------------------------------------------------------------|
A|---------------------------------------------------------------------------|
E|---------------------------------------------------------------------------|

e|---------------------------------------------------------------------------|
B|--0-1-3-3-1-3-5-3-3-8-8-8-3-0----------------------------------------------|
G|-0----------------------------2-0-0----------------------------------------|
D|---------------------------------------------------------------------------|
A|---------------------------------------------------------------------------|
E|---------------------------------------------------------------------------|

e|-----------------------------------------------------------------------------------|
B|-0h1h2h3-5-5-7-7-8-3-1-0-----5-5-5-5-1-0------5-5-7-7-8-3-1-0--------1-0-----------|
G|-------------------------2-0-------------2--0-----------------2-0--0-----2-0-2-0---|
D|-----------------------------------------------------------------------------------|
A|-----------------------------------------------------------------------------------|
E|-----------------------------------------------------------------------------------|
Tap to rate this tab
 
# A B C D E F G H I J K L M N O P Q R S T U V W X Y Z