Song name
# A B C D E F G H I J K L M N O P Q R S T U V W X Y Z

Le Baron - Exilio tab

Intro.

E----------------------------------|
B----------------------------------|
G-2-2-2-2-2-2-2-1-1-1-1-1----------|
D-------------------------4-4-2-2--|
A----------------------------------|
E----------------------------------|

Esto es lo que haras en la segunda vez


E----------------------------------------------------------------|
B----------------------------------------------------------------|
G-2-2-2-2-2-2-2-1-1-1-1-1----------------------------------------|
D-------------------------4-4-2-2--------------------------------|
A----------------------------------4-4-4-4-4-4-4-4-4-4-4-4-4-4-4-|
E----------------------------------------------------------------|

E--------------------------------------------------------|
B--------------------------------------------------------|
G--------------------------------------------------------|
D-4-4-4-4-2-2-2-2-2-2-2-2-4-4-2-2------------------------|
A--------------------------------------------------------|
E--------------------------------------------------------|

EL sonido del segundo 00:26 es asi
E-16----14----19----16-----------------------------------|
B--------------------------------------------------------|
G--------------------------------------------------------|
D--------------------------------------------------------|
A--------------------------------------------------------|
E--------------------------------------------------------|


EN el minuto 00:55 la guitarra es asi
E--------------------------------------------------------|
B-------------------------------------------5-7----------|
G-9--9--9--9--9--9--9--9--8--8--8--8--8--8---------------|
D--------------------------------------------------------|
A--------------------------------------------------------|
E--------------------------------------------------------|

Coro (Ven Conmigo , Ven conmigo)minuto 1:01
E--------------------------------------------------------|
B---------10-10-10-9-9-9-9-9-9---------------------------|
G-9-9-9-9------------------------------------------------|
D--------------------------------------------------------|
A--------------------------------------------------------|
E--------------------------------------------------------|

Coro (ven conmigo) minuto 2:15
E----------------------------------------------------------|
B----------------------------------------------------------|
G-11-11-11-11-9-9-9-9-8-8-8-8-8-8-8-8-11-11-11-11/13-13-13-|
D----------------------------------------------------------|
A----------------------------------------------------------|
E----------------------------------------------------------|

y termina con esto
EL sonido del segundo 00:26 es asi
E-16----14----19----16-----------------------------------|
B--------------------------------------------------------|
G--------------------------------------------------------|
D--------------------------------------------------------|
A--------------------------------------------------------|
E--------------------------------------------------------|
Tap to rate this tab
 
# A B C D E F G H I J K L M N O P Q R S T U V W X Y Z