Le Baron - Inmovil tab

Intro


e------------------------------------------------------------|
B------------------------------------------------------------|
G-11--11--11--9-9--8-8----11--11--11--9-9--8-----------------|
D------------------------------------------------------------|
A-9---9---9---7-7--6-6----9---9---9---7-7--6-----------------|
E------------------------------------------------------------|

Al minuto 0:10
e-----------------------------------------|
B-----------------------------------------|
G-----------------------------------------|
D-4-4-4-4-2-2-2-1-1-1-1-------------------|
A------------------------4-4-2------------|
E-----------------------------------------|

Coro(Inmovil entras en mi mente)
..............INMOVIL ENTRAS EN MI MENTE ...........Y TE VUELVES A ESCAPAR
e---------------------------------------------------------------------|
B---------------------------------------------------------------------|
G---------------------------------------------------------------------|
D---------------------------------------------------------------------|
A-6-6-6-6-6-6-6-6-6-6-4-4-4-4-4-4-4-4-4-9-9-9-9-9-9-9-6-6-6-6-4-4-4-4-|
E-4-4-4-4-4-4-4-4-4-4-2-2-2-2-2-2-2-2-2-7-7-7-7-7-7-7-4-4-4-4-2-2-2-2-|
Tap to rate this tab
 
# A B C D E F G H I J K L M N O P Q R S T U V W X Y Z