Song name
# A B C D E F G H I J K L M N O P Q R S T U V W X Y Z

Le Chat Noir - No One Left To Blame tab

Le Chat Noir - No One Left To Blame
Deadwood (2007)

Very easy song, all powerchords in drop d like most other LCN work.

Intro/Choruses

e|-------------------------------------------------|
B|-------------------------------------------------|
G|-------------------------------------------------|
D|-12-12--10-10--7-7--3-3---12-12--10-10--7-7--3-3-|
A|-12-12--10-10--7-7--3-3---12-12--10-10--7-7--3-3-|
D|-12-12--10-10--7-7--3-3---12-12--10-10--7-7--3-3-|

e|----------------------------------------|
B|----------------------------------------|
G|----------------------------------------|
D|-12-12--10-10--7-7--3-3---5555-3-5-3-0-3|   X2
A|-12-12--10-10--7-7--3-3---5555-3-5-3-0-3|
D|-12-12--10-10--7-7--3-3---5555-3-5-3-0-3|


Verses

e|--------------------------------------------|
B|--------------------------------------------|
G|--------------------------------------------|
D|-0------3------5----------------------------|   X2
A|-0------3------5----------------------------|
D|-0------3------5------12-12p10p0-12-12p10p0-|
Tap to rate this tab
# A B C D E F G H I J K L M N O P Q R S T U V W X Y Z