Song name
# A B C D E F G H I J K L M N O P Q R S T U V W X Y Z

Le Chat Noir - Is Ignorance A Sin tab

Great song by Le Chat Noir

http://www.lechatnoir.org.uk/
http://www.myspace.com/chatnoirband

Video for the song at http://www.youtube.com/watch?v=k6BZI97W2j8

Intro

e|-------------------------------------------------|
B|-------------------------------------------------|
G|-------------------------------------------------|
D|-------------------------------------------------|
A|-------------------------------------------------|
D|---10-12-12-12-10-12-12-12-12-10-12-12-10-12/0---| x2

e|-------------------------------------------------------------------------|
B|-------------------------------------------------------------------------|
G|-------------------------------------------------------------------------|
D|---0--10--12-0-0-10--12--0--10--12---------------------------------------|
A|---0--10--12-0-0-10--12--0--10--12-10h12p10------------------------------|
D|---0--10--12-0-0-10--12--0--10--12---------12-10-------------------------|

e|-------------------------------------------------------------------------|
B|-------------------------------------------------------------------------|
G|-------------------------------------------------------------------------|
D|---0--10--12-0-0-10--12--0--10--12---------------------------------------|
A|---0--10--12-0-0-10--12--0--10--12-12-10---------------------------------|
D|---0--10--12-0-0-10--12--0--10--12------12-10----------------------------|

Verse 1

e|----------------------------------------------------------|
B|----------------------------------------------------------|
G|----------------------------------------------------------|
D|----------------------------------------------------------|
A|---------------------------------------------10h12p10-----|
D|---10-12-12-12-10-12-12-12-12-10-12-12-10-12---------12-10| x4

Break

e|-----------------------------------------------------|
B|-----------------------------------------------------|
G|-----------------------------------------------------|
D|---0-3-5-0-0-0-3-5-0-0-3-5--------17b----------------|
A|---0-3-5-0-0-0-3-5-0-0-3-5--15-15----15--------------|
D|---0-3-5-0-0-0-3-5-0-0-3-5---------------------------|

e|-------------------------------------------------------|
B|-------------------------------------------------------|
G|-------------------------------------------------------|
D|---0-3-5-0-0-0-3-5-0-0-3-5--------17b-17---------------|
A|---0-3-5-0-0-0-3-5-0-0-3-5--15-15----------------------|
D|---0-3-5-0-0-0-3-5-0-0-3-5-----------------------------|

e|-----------------------------------------------------|
B|-----------------------------------------------------|
G|-----------------------------------------------------|
D|---0-3-5-0-0-0-3-5-0-0-3-5--------17b----------------|
A|---0-3-5-0-0-0-3-5-0-0-3-5--15-15----15--------------|
D|---0-3-5-0-0-0-3-5-0-0-3-5---------------------------|

Verse 2

e|-------------------------------------------------|
B|-------------------------------------------------|
G|-------------------------------------------------|
D|-------------------------------------------------|
A|-------------------------------------------------|
D|---10-12-12-12-10-12-12-12-12-10-12-12-10-12/0---| x2

Break

e|-------------------------------------------------------------------------|
B|-------------------------------------------------------------------------|
G|-------------------------------------------------------------------------|
D|---0--10--12-0-0-10--12--0--10--12---------------------------------------|
A|---0--10--12-0-0-10--12--0--10--12-10h12p10------------------------------|
D|---0--10--12-0-0-10--12--0--10--12---------12-10-------------------------|

e|-------------------------------------------------------------------------|
B|-------------------------------------------------------------------------|
G|-------------------------------------------------------------------------|
D|---0--10--12-0-0-10--12--0--10--12---------------------------------------|
A|---0--10--12-0-0-10--12--0--10--12-12-10---------------------------------|
D|---0--10--12-0-0-10--12--0--10--12------12-10----------------------------|


Verse 3

e|----------------------------------------------------------|
B|----------------------------------------------------------|
G|----------------------------------------------------------|
D|----------------------------------------------------------|
A|---------------------------------------------10h12p10-----|
D|---10-12-12-12-10-12-12-12-12-10-12-12-10-12---------12-10| x4

Break

e|-----------------------------------------------------|
B|-----------------------------------------------------|
G|-----------------------------------------------------|
D|---0-3-5-0-0-0-3-5-0-0-3-5--------17b----------------|
A|---0-3-5-0-0-0-3-5-0-0-3-5--15-15----15--------------|
D|---0-3-5-0-0-0-3-5-0-0-3-5---------------------------|

e|-------------------------------------------------------|
B|-------------------------------------------------------|
G|-------------------------------------------------------|
D|---0-3-5-0-0-0-3-5-0-0-3-5--------17b-17---------------|
A|---0-3-5-0-0-0-3-5-0-0-3-5--15-15----------------------|
D|---0-3-5-0-0-0-3-5-0-0-3-5-----------------------------|

e|----------------------------------------------------------------------|
B|----------------------------------------------------------------------|
G|----------------------------------------------------------------------|
D|---0-3-5-0-0-0-3-5-0-0-3-5--------17b--------0-3-5-0-0-3-5-0-3-5-3-0--|
A|---0-3-5-0-0-0-3-5-0-0-3-5--15-15----15------0-3-5-0-0-3-5-0-3-5-3-0--|
D|---0-3-5-0-0-0-3-5-0-0-3-5-------------------0-3-5-0-0-3-5-0-3-5-3-0--|


Lyrics

Verse 1

I woke up this morning
With an empty bottle of gin
I woke up this morning
And you asked me where I'd been 

Now, honey
Is ignorance a sin?
Well, honey
Is ignorance a sin?

Verse 2

Well, honey
Is ignorance a sin?
Now, honey
Is ignorance a sin?

Verse 3

Girl, I ain't a devil
But I sure ain't saved yet
Girl I ain't a saint
But I'm drinking to forget

Now, honey
Is ignorance a sin?
Well, honey
Is ignorance a sin?


Tap to rate this tab
 
# A B C D E F G H I J K L M N O P Q R S T U V W X Y Z