Song name
# A B C D E F G H I J K L M N O P Q R S T U V W X Y Z

Le Chic - Freak Out tab

This is the first tab I have ever submitted so go easy on me for any criticisms. I am sure it isn't 
but it sounds very close(just try playing it with the song and you'll see). The other tab for this song is under 
- Le freak, which isn't the right name and the tab didn't seem right either, but it was close.


I didn't add timing because it is too tedious with tabs, but listen to the song and you'll pick it up quickly.

E--------------------------------------------|
B-----10--------------------7---7-7-7--5-5---|
G-----9----5---5-5-5--5-5---7---7-7-7--5-5---|
D--7--7----5h7-7-7-5--7-5---7---7-7-7--5-5---|
A--7-----------------------------------------|
E--5-----------------------------------------|


other part is just switching between Am and D
---5--------5----------------------------|
---5--------7----------------------------|
---5--------7----------------------------|
---7--------7----------------------------|
---7--------5----------------------------|
-----------------------------------------|


and yes, I know it is lame to be listening to and tabbing this song but it's an addictive guitar riff :)
Tap to rate this tab
 
# A B C D E F G H I J K L M N O P Q R S T U V W X Y Z