Song name
# A B C D E F G H I J K L M N O P Q R S T U V W X Y Z

Le Couple - Yuubae tab

Author/Artist: Le Couple
Title: Yuubae


-|--------------|-------3-2-3-0-|-----3-------------------------|-------------|
-|--------------|-----3---3-----|-3---2---1-0---------0h1---1-0-|-------------|
-|-2/4-5-4-55/7-|-0-4-----2-----|-4-------2-0-0-2-0--0----0-0-0-|-------------|
-|--------------|---------------|-----------0-------0---------0-|-------------|
-|--------------|---------------|-------------------------------|-------------|
-|--------------|---------------|-------------------------------|-------------|


-|--------------|----3---2---0--|----3---2---0--|--------3------|----0--------|
-|-0--1--0-1-3--|----3---3---1--|----3---3---1--|----3---2---1--|----1--------|
-|-0--0--0-2-4--|--0-2---2---0--|----3---2---0--|----4-------2--|----2--------|
-|-0--0--0-2-4--|-0-------------|---------------|---------------|-------------|
-|--------------|---------------|---------------|---------------|-------------|
-|--------------|---------------|---------------|---------------|-------------|
  kawa wo watata kaze no otoni   iki mo dekizu ni me wo tojita no wa

-|--------------|----3--2--3--7-|---------------|--------------|--------------|
-|-0--1--0-1-3--|--0-3--3--3--5-|--5-----1---1--|----1-----0---|-1-0----1-10--|
-|-0--0--0-2-4--|-0--2--2--2--6-|-5-5----0---2--|----0-----0---|-0-0---0-0-0--|
-|-0--0--0-2-4--|0------------5-|5---5---0---0--|----0-----0---|-0-0--0----0--|
-|--------------|---------------|---------------|--------------|--------------|
-|--------------|---------------|---------------|--------------|--------------|
  tsumetai nete ima mo anata  ga   te wo tsunaidekuruso    data kara

-|--------------------5---3-|----------------5---3-|--------------------------|
-|---0-0-----1---0----------|-1--1--1--0-----------|--------------------------|
-|--0-0-0----0---0----------|-0--0--0--0-----------|--------------------------|
-|-0---------2---2----------|-2--2--0--0-----------|--------------------------|
-|--------------------------|----------------------|--------------------------|
-|--------------------------|----------------------|--------------------------|
  nishihi wo abite denshi ga  machi no mukou nijinde

-|-0--0-2---|-0-0-2---|-0--0--3--2--|-0--0--7--5--|-3--2-----------------|----|
-|-1--1-3-3-|-1-1-3-3-|-1--1--3--3--|-1--1--7--5--|-3--3--1--0--1--0--0--|----|
-|-2--2-2-2-|-2-2-2-2-|-2--2--2--2--|-2--2--7--5--|-2--2--2--0--2--0--0--|----|
-|-2--2---0-|-2-2---0-|-2--2--------|-2--2--------|-0--0--2--2--2--2--0--|----|
-|----------|---------|-------------|-------------|----------------------|----|
-|----------|---------|-------------|-------------|----------------------|----|


-|-3--2--------------------------|--------------------------------------------|
-|-3--3--0130--1--1--0--1-0-1-0--|--------------------------------------------|
-|-2--2--2--0--2--0--0--0-0-0-0--|--------------------------------------------|
-|-0--0--2--0--2--0--0--0-0-0-0--|--------------------------------------------|
-|-------------------------------|--------------------------------------------|
-|-------------------------------|--------------------------------------------|

http://en.wikipedia.org/wiki/Le_Couple
Tap to rate this tab
# A B C D E F G H I J K L M N O P Q R S T U V W X Y Z