Song name
# A B C D E F G H I J K L M N O P Q R S T U V W X Y Z

Le Fly - Der Typ Von Der Couch tab

Le Fly - Der Typ von der Couch
Album: Gr dich doch erstmal!

tabbed by KickAssDude82 (dude[at]kickassdude.de)

This is my first tab and I know it's not perfect.
But it gives you an idea how to play it ;)


Tuning: Standard (EADGBE)


Intro
=====

E|-----2-2----2----2-2---2-------5-5---5-----0-0---0---------------------------------|
B|-----3-3----3----2-2---2-------5-5---5-----0-0---0---------------------------------|
G|-----4-4----4----2-2---2-------6-6---6-----1-1---1---------------------------------|
D|-----------------------------------------------------------------------------------|
A|--2~--2----2-----------------------------2~-2---2-2--------------------------------|
E|--------------52~-2---2-2---5~--5---5-5--------------------------------------------|
       x x    x    x x   x       x x   x     x x   


E|-----2-2----2----2-2-2-----5-5---5-----0-0---0-------------------------------------|
B|-----3-3----3----2-2-2-----5-5---5-----0-0---0-------------------------------------|
G|-----4-4----4----2-2-2-----6-6---6-----1-1---1-------------------------------------|
D|-----------------------------------------------------------------------------------|
A|--2~--2----2-----------------------------------------------------------------------|
E|--------------52~-2-2-2-5~--5---5-5--0~-0---0-0------------------------------------|
       x x    x    x x x     x x   x     x x


Verse
=====

E|-----2-2----2----2-2---2-------5-5---5-----0-0---0---------------------------------|
B|-----3-3----3----2-2---2-------5-5---5-----0-0---0---------------------------------|
G|-----4-4----4----2-2---2-------6-6---6-----1-1---1---------------------------------|
D|-----------------------------------------------------------------------------------|
A|--2~--2----2-----------------------------2~-2---2-2--------------------------------|
E|--------------52~-2---2-2---5~--5---5-5--------------------------------------------|
       x x    x    x x   x       x x   x     x x


E|-----2-2----2----2-2-2-----5-5---5-----0-0---0-------------------------------------|
B|-----3-3----3----2-2-2-----5-5---5-----0-0---0-------------------------------------|
G|-----4-4----4----2-2-2-----6-6---6-----1-1---1-------------------------------------|
D|-----------------------------------------------------------------------------------|
A|--2~--2----2-----------------------------------------------------------------------|
E|--------------52~-2-2-2-5~--5---5-5--0~-0---0-0------------------------------------|
       x x    x    x x x     x x   x     x x


E|-----2-2----2----2-2---2-------5-5---5-----0-0---0---------------------------------|
B|-----3-3----3----2-2---2-------5-5---5-----0-0---0---------------------------------|
G|-----4-4----4----2-2---2-------6-6---6-----1-1---1---------------------------------|
D|-----------------------------------------------------------------------------------|
A|--2~--2----2-----------------------------2~-2---2-2--------------------------------|
E|--------------52~-2---2-2---5~--5---5-5--------------------------------------------|
       x x    x    x x   x       x x   x     x x


E|-----2-2----2----2-2---2-----5-5---5-----------------------------------------------|
B|-----3-3----3----2-2---2-----5-5---5-----------------------------------------------|
G|-----4-4----4----2-2---2-----6-6---6-----------------------------------------------|
D|---------------------------------------22222222------------------------------------|
A|--2~--2----2---------------------------22222222------------------------------------|
E|--------------52~-2---2-2-5~--5---5-5--00000000------------------------------------|
       x x    x    x x   x     x x   x  


Chorus
======

E|-----------------------------------------------------------------------------------|
B|-----------------------------------------------------------------------------------|
G|--4-4-444-----------------------9-9-999--------------------------------------------|
D|--4-4-444---4-4-444---7-7-777---9-9-999--------------------------------------------|
A|--2-2-222---4-4-444---7-7-777---7-7-777--------------------------------------------|
E|------------2-2-222---5-5-555------------------------------------------------------|


E|-----------------------------------------------------------------------------------|
B|-----------------------------------------------------------------------------------|
G|--4-4-444-----------------------1-1-1-1--------------------------------------------|
D|--4-4-444---4-4-444---7-7-777---2-2-2-2--------------------------------------------|
A|--2-2-222---4-4-444---7-7-777---2-2-2-2--------------------------------------------|
E|------------2-2-222---5-5-555------------------------------------------------------|



Verse (listen to the rhythm)
=====

E|--22-2-2-22---22-2-2-22---55-5-5-55---77-7-7-77------------------------------------|
B|--33-3-3-33---22-2-2-22---55-5-5-55---99-9-9-99------------------------------------|
G|--44-4-4-44---22-2-2-22---66-6-6-66---99-9-9-99------------------------------------| 3x
D|--44-4-4-44---44-4-4-44---77-7-7-77---99-9-9-99------------------------------------|
A|--22-2-2-22---44-4-4-44---77-7-7-77---77-7-7-77------------------------------------|
E|--------------22-2-2-22---55-5-5-55------------------------------------------------|
    xx x x xx   xx x x xx   xx x x xx   xx x x xx


E|--22-2-2-22---22-2-2-22---55-5-5-55---7-7-7-7--------------------------------------|
B|--33-3-3-33---22-2-2-22---55-5-5-55---9-9-9-9--------------------------------------|
G|--44-4-4-44---22-2-2-22---66-6-6-66---9-9-9-9--------------------------------------|
D|--44-4-4-44---44-4-4-44---77-7-7-77---9-9-9-9--------------------------------------|
A|--22-2-2-22---44-4-4-44---77-7-7-77---7-7-7-7--------------------------------------|
E|--------------22-2-2-22---55-5-5-55------------------------------------------------|
    xx x x xx   xx x x xx   xx x x xx   x x x x


Chorus
======

E|-----------------------------------------------------------------------------------|
B|-----------------------------------------------------------------------------------|
G|--4-4-444-----------------------9-9-999--------------------------------------------|
D|--4-4-444---4-4-444---7-7-777---9-9-999--------------------------------------------|
A|--2-2-222---4-4-444---7-7-777---7-7-777--------------------------------------------|
E|------------2-2-222---5-5-555------------------------------------------------------|


E|-----------------------------------------------------------------------------------|
B|-----------------------------------------------------------------------------------|
G|--4-4-444-----------------------1-1-1-1--------------------------------------------|
D|--4-4-444---4-4-444---7-7-777---2-2-2-2--------------------------------------------|
A|--2-2-222---4-4-444---7-7-777---2-2-2-2--------------------------------------------|
E|------------2-2-222---5-5-555------------------------------------------------------|



Riff
======

E|-----------------------------------------------------------------------------------|
B|-----------------------------------------------------------------------------------|
G|-----------------------------------------------------------------------------------|
D|--99-7-9-9/11-7---77---7-7/9-7---77---7-7/9-6---666-7-7/9--------------------------|
A|---------------------9--------------9----------------------------------------------|
E|-----------------------------------------------------------------------------------|


E|-----------------------------------------------------------------------------------|
B|-----------------------------------------------------------------------------------|
G|-----------------------------------------------------------------------------------|
D|--9---99-7-9-9/11-7---77---7-7/9-7---77---7-9-6~-----------------------------------|
A|-------------------------9--------------9------------------------------------------|
E|-----------------------------------------------------------------------------------|



Interlude
=========

E|--5555-44---5555-44---7777-55------------------------------------------------------|
B|--3333-33---3333-33---5555-55------------------------------------------------------|
G|--4444-44---4444-44---6666-66------------------------------------------------------|
D|-----------------------------------------------------------------------------------|
A|-----------------------------------------------------------------------------------|
E|--------------------------------0-22-0-22-0-22-0-22--2/7---------------------------|


E|--5555-44---5555-44---7777-55---7777-55---5555-44---7777-55---5555-44--------------|
B|--3333-33---3333-33---5555-55---5555-55---3333-33---5555-55---3333-33--------------|
G|--4444-44---4444-44---6666-66---6666-66---4444-44---6666-66---4444-44--------------|
D|-----------------------------------------------------------------------------------|
A|-----------------------------------------------------------------------------------|
E|------------------------------------------------------------------------0-22-0-22--|


Chorus
======

E|-----------------------------------------------------------------------------------|
B|-----------------------------------------------------------------------------------|
G|--4-4-444-----------------------9-9-999--------------------------------------------|
D|--4-4-444---4-4-444---7-7-777---9-9-999--------------------------------------------|
A|--2-2-222---4-4-444---7-7-777---7-7-777--------------------------------------------|
E|------------2-2-222---5-5-555------------------------------------------------------|


E|-----------------------------------------------------------------------------------|
B|-----------------------------------------------------------------------------------|
G|--4-4-444-----------------------1-1-111--------------------------------------------|
D|--4-4-444---4-4-444---7-7-777---2-2-222--------------------------------------------|
A|--2-2-222---4-4-444---7-7-777---2-2-222--------------------------------------------|
E|------------2-2-222---5-5-555------------------------------------------------------|


E|-----------------------------------------------------------------------------------|
B|-----------------------------------------------------------------------------------|
G|--4-4-444-----------------------9-9-999--------------------------------------------|
D|--4-4-444---4-4-444---7-7-777---9-9-999--------------------------------------------|
A|--2-2-222---4-4-444---7-7-777---7-7-777--------------------------------------------|
E|------------2-2-222---5-5-555------------------------------------------------------|


E|-----------------------------------------------------------------------------------|
B|-----------------------------------------------------------------------------------|
G|--4-4-444-----------------------1-1-1-1--------------------------------------------|
D|--4-4-444---4-4-444---7-7-777---2-2-2-2--------------------------------------------|
A|--2-2-222---4-4-444---7-7-777---2-2-2-2--------------------------------------------|
E|------------2-2-222---5-5-555------------------------------------------------------|



Riff/Outro
==========
E|-----------------------------------------------------------------------------------|
B|-----------------------------------------------------------------------------------|
G|-----------------------------------------------------------------------------------|
D|--99-7-9-9/11-7---77---7-7/9-7---77---7-9-6---666-7-7/9----------------------------|
A|---------------------9--------------9----------------------------------------------|
E|-----------------------------------------------------------------------------------|


E|-----------------------------------------------------------------------------------|
B|-----------------------------------------------------------------------------------|
G|-----------------------------------------------------------------------------------|
D|--9---99-7-9-9/11-7---77---7-7/9-7---77---7-7/9-6----------------------------------|
A|-------------------------9--------------9------------------------------------------|
E|-----------------------------------------------------------------------------------|


E|-----------------------------------------------------------------------------------|
B|-----------------------------------------------------------------------------------|
G|-----------------------------------------------------------------------------------|
D|--99-7-9-9/11-7---77---7-7/9-7---77---7-9-6---666-7-7/9----------------------------|
A|---------------------9--------------9----------------------------------------------|
E|-----------------------------------------------------------------------------------|


E|-----------------------------------------------------------------------------------|
B|-----------------------------------------------------------------------------------|
G|-----------------------------------------------------------------------------------|
D|--9---99-7-9-9/11-7---77---7-9-7---77---7-7/9-6~\2---------------------------------|
A|-------------------------9------------9--------------------------------------------|
E|-----------------------------------------------------------------------------------|

E|-----------------------------------------------------------------------------------|
B|-----------------------------------------------------------------------------------|
G|-----------------------------------------------------------------------------------|
D|--99-7-9-9/11-7---77---7-9-7---77---7-9-6---666-7-9--------------------------------|
A|---------------------9------------9------------------------------------------------|
E|-----------------------------------------------------------------------------------|

...



Tab Legend
h  -  hammer-on
p  -  pull-off
/  -  slide up
\  -  slide down
ps/-  pickslide up
ps\-  pickslide down
~  -  let ring
pm.-  palm mute
x  -  lighten fret hand
b  -  bend
r  -  return from bend
*  -  harmonic
Tap to rate this tab
 
# A B C D E F G H I J K L M N O P Q R S T U V W X Y Z