Song name
# A B C D E F G H I J K L M N O P Q R S T U V W X Y Z

Le Tigre - How Are You tab

e-----------------------------------------------------------------|
b-----------------------------------------------------------------|
g---------0---------------0-----------0-2-3-2-0-------0-2-3-2-0---|
d-----0-2---2-0-------0-2---2-0-----2-----------2---2-----------2-|
a---2-----------2---2-----------2-3---------------3---------------|
e-3---------------3-----------------------------------------------|


e-----------------------------------|
b-----------------------------------|
g---------0-------------------------|
d-----0-2---2-0---0-2-3-2-0---------|
a---2-----------2-----------3-2-0---|
e-3------------------------------3--|
Tap to rate this tab
# A B C D E F G H I J K L M N O P Q R S T U V W X Y Z