Song name
# A B C D E F G H I J K L M N O P Q R S T U V W X Y Z

Le Tigre - Deceptacon tab

e|----------------------------------------------------------------|
B|----------------------------------------------------------------|  
G|----------------------------------------------------------------|
D|----------------------------------------------------------------|
A|-2--2--2-2---------------------7--7--7-7------------------------| 
E|-----------2---5--5--5--5-5--------------7---10--10--10--10-10--|

This is played the whole way through apart from when the pauses.
The keyboard pause part can be played on the guitar with an effects pedal.

e|---------------------|
B|---------------------|  
G|---------------------|      X4
D|-9--7s12----9--------|
A|---------12----------| 
E|---------------------|

Tap to rate this tab
# A B C D E F G H I J K L M N O P Q R S T U V W X Y Z