Song name
# A B C D E F G H I J K L M N O P Q R S T U V W X Y Z

Le Tigre - Lets Run tab

Help us improve GuitareTab! Take a short survey!
Let's Run
Le Tigre
Le Tigre

I really, really love Le Tigre, and I figured this out while screwing around on my 
so here you go! xxAndrew

Intro/Verses
E --------------------------------------------------------|
B --------------------------------------------------------|
G --------------------------------------------------------|
D --------------------------------------------------------|
A -------------7-7----------------------------------------|
E -7-7-5-5-0-0-----5-7------------------------------------|

Chorus
E --------------------------------------------------------|
B --------------------------------------------------------|
G --------------------------------------------------------|
D --------------------------------------------------------|
A -----------------7-7-7----------------------------------|
E -7-7-7-7-5-5-5-5-------5-7-7-7-7------------------------|
Related for Lets Run tab