Song name
# A B C D E F G H I J K L M N O P Q R S T U V W X Y Z

Le Tigre - Mediocrity Rules tab

-------------------------------------------------------------------------------
			   Mediocrity Rules - Le Tigre 
-------------------------------------------------------------------------------
Tabbed by: alishpie
Email: alishpie@hotmail.com

Tuning: Standard


It's probably not all correct but I added parts in because they're fun to play :)
This is a cool song, have fun!


e|---------------------------------------------------------|
B|---------------------------------------------------------|
G|---------------------------------------------------------|
D|---------------------------------------------------------|
A|---------------5-7---------------------------------------|   x12
E|-7--7-7-0-5-5-0------------------------------------------|


e|---------------------------------------------------------|
B|---------------------------------------------------------|
G|---------------------------------------------------------|
D|---------------------------------------------------------|
A|-----------------7-7-7---------------------------7-------|
E|-7-7-7-7-5-5-5-5-------5h7-7-7-7-7-7-7-7-5-5-5-5---------|

e|---------------------------------------------------------|
B|---------------------------------------------------------|
G|---------------------------------------------------------|
D|---------------------------------------------------------|
A|---------------5-7---------------------------------------|   x12
E|-7--7-7-0-5-5-0------------------------------------------|

e|---------------------------------------------------------|
B|---------------------------------------------------------|
G|---------------------------------------------------------|
D|---------------------------------------------------------|
A|-----------------7-7-7---------------------------7---5-7-|
E|-7-7-7-7-5-5-5-5-------5h7-7-7-7-7-7-7-7-5-5-5-5---------|

e|---------------------------------------------------------|
B|---------------------------------------------------------|
G|---------------------------------------------------------|
D|---------------------------------------------------------|
A|-----5-5-7------5-5-7------------------------------------|   x9
E|--7-----------7------------------------------------------|

and finally, to end
e|----------------------------------------------------------|
B|----------------------------------------------------------|
G|----------------------------------------------------------|
D|----------------------------------------------------------|
A|---------5-7----------------------------------------------|
E|-7-7-7-7-----7--------------------------------------------|



| /  slide up
| \  slide down
| h  hammer-on
| p  pull-off
| ~  vibrato
| +  harmonic
| x  Mute note
===============================================================================
Tap to rate this tab
 
# A B C D E F G H I J K L M N O P Q R S T U V W X Y Z