Song name
# A B C D E F G H I J K L M N O P Q R S T U V W X Y Z

Le Tigre - Tko tab

intro/verse:
-------------------------|
-------------------------|
-------------------------|
------------55--9--------|
----99---9--33--7--99----|
----77---7---------77----|


chorus:
---------------------------|
---------------------------|
---------------------------|
----------3-----9----------|
----9-----5x15--7x15--9----|
----7x15--------------7x15-|
Tap to rate this tab
# A B C D E F G H I J K L M N O P Q R S T U V W X Y Z