Song name
# A B C D E F G H I J K L M N O P Q R S T U V W X Y Z

Lea Salonga - Love Is All That Matter tab

e|------0-----3---1--0-------0--|
b|--1-3---1-3----------3-1-3----|
g|------------------------------|
D|------------------------------|
A|------------------------------|
E|------------------------------|

e|------0-----3---1--0----------|
b|--1-3---1-3----------3-1-3----|
g|------------------------------|
D|------------------------------|
A|------------------------------|
E|------------------------------|

e|------0-----3---1--0-------0--|
b|--1-3---1-3----------3-1-3----|
g|------------------------------|
D|------------------------------|
A|------------------------------|
E|------------------------------|

e|------0-----3---1--0----------|
b|--1-3---1-3----------3-1-1----|
g|------------------------------|
D|------------------------------|
A|------------------------------|
E|------------------------------|

hehe, hindi nga lang ako sigurado dito...
wehe, ^_^
Tap to rate this tab
# A B C D E F G H I J K L M N O P Q R S T U V W X Y Z