Song name
# A B C D E F G H I J K L M N O P Q R S T U V W X Y Z

Leadbelly - You Dont Know My Mind tab

You Don't Know My Mind - Leadbelly
Open D Tuning - DADF#AD
% = repeat


1ST RIFF:
D:-----------0-0--0---0-0-----0-0-------------------
A:----0---2----0--0---0-0-----0-0-------------------
F#-0-----------0--0---0-0-----0-0-------------------
D:-------------0--0-0-0-0-0-0-0-0-------------------
A:-------------0--0-0-----0-0-0-0-------------------
D:------------------0-----0-0-----------------------

IV CHORD:
D:------0-0------0-0------0-0-----------
A:------5-5------5-5------5-5-----------
F#-5-5--5-5-5-5--5-5-5-5--5-5-----------
D:-5-5------5-5------5-5----------------
A:--------------------------------------
D:--------------------------------------

turnaround
D:---------2-2-------2-2------2---------
A:---------2-2-------2-2------2---------
F#---------2-2-------2-2------2---------
D:---------2-2-------2-2-2-2--2---------
A:---------2-2--2-2------2-2--2---------
D:--4-3-2-------2-2------2-2------------

Special thanks to my guitar teacher for this one.
Tap to rate this tab
# A B C D E F G H I J K L M N O P Q R S T U V W X Y Z