Song name
# A B C D E F G H I J K L M N O P Q R S T U V W X Y Z

Leaders - Deal With It tab

Artist:No Warning
Song:Almost There
E-Mail:sk8zero_5@hotmail.com
Tabbed By:Stevo C

E---------------------------------|
B---------------------------------|
G-5-x-x-------------------2-2-2-2-|
D-5-x-x-4-x-x-4-x-x-4-x-x-2-2-2-2-|
A-3-x-x-4-x-x-4-x-x-4-x-x-0-0-0-0-|
D-------4-x-x-4-x-x-4-x-x---------|

E---------------------------------|
B---------------------------------|
G-5-------------------------------|
D-5-4-4-4-4-4-4-4-4-4-4-4-1-1-1-1-|
A-3-4-4-4-4-4-4-4-4-4-4-4-1-1-1-1-|
D---4-4-4-4-4-4-4-4-4-4-4-1-1-1-1-|
PM  . .   . .   . .   . . . . . .

E---------------------------------|
B---------------------------------|
G-5-x-x-------------------2-2-2-2-|
D-5-x-x-4-x-x-4-x-x-4-x-x-2-2-2-2-|
A-3-x-x-4-x-x-4-x-x-4-x-x-0-0-0-0-|
D-------4-x-x-4-x-x-4-x-x---------|

E------------------------------------|
B------------------------------------|
G-5----------------------------------|
D-5-4-4-4-4-4-4-4-4-4-4-4-1-1-1-1-1~-|
A-3-4-4-4-4-4-4-4-4-4-4-4-1-1-1-1-1~-|
D---4-4-4-4-4-4-4-4-4-4-4-1-1-1-1-1~-|
PM  . .   . .   . .   . . . . . .

E-----------------------------------------------------------------|
B-----------------------------------------------------------------|
G-------------------------------------------------5-5-5-5-5-5-5-5-|
D-4-4-4-4-4-4-4-4-4-4-4-4-4-4-4-4-1-1-1-1-1-1-1-1-5-5-5-5-5-5-5-5-|
A-4-4-4-4-4-4-4-4-4-4-4-4-4-4-4-4-1-1-1-1-1-1-1-1-3-3-3-3-3-3-3-3-|
D-4-4-4-4-4-4-4-4-4-4-4-4-4-4-4-4-1-1-1-1-1-1-1-1-----------------|

E-----------------------------------------------------------------|
B-----------------------------------------------------------------|
G-------------------------------------------------5-5-5-5-5-5-5-5-|
D-4-4-4-4-4-4-4-4-4-4-4-4-4-4-4-4-1-1-1-1-1-1-1-1-5-5-5-5-5-5-5-5-|
A-4-4-4-4-4-4-4-4-4-4-4-4-4-4-4-4-1-1-1-1-1-1-1-1-3-3-3-3-3-3-3-3-|
D-4-4-4-4-4-4-4-4-4-4-4-4-4-4-4-4-1-1-1-1-1-1-1-1-----------------|

E---------------------------------------------------|
B---------------------------------------------------|
G-----------------------------------5-5-5-5-5-5-5-5-|
D-444-444-444-444-1-1-1-1-1-1-1-1-1-5-5-5-5-5-5-5-5-|
A-444-444-444-444-1-1-1-1-1-1-1-1-1-3-3-3-3-3-3-3-3-|
D-444-444-444-444-1-1-1-1-1-1-1-1-1-----------------|
PM... ... ... ...

E---------------------------------------------------|
B---------------------------------------------------|
G-----------------------------------5-5-5-5-5-5-5-5-|
D-444-444-444-444-1-1-1-1-1-1-1-1-1-5-5-5-5-5-5-5-5-|
A-444-444-444-444-1-1-1-1-1-1-1-1-1-3-3-3-3-3-3-3-3-|
D-444-444-444-444-1-1-1-1-1-1-1-1-1-----------------|
PM... ... ... ...

E-------------------------------------------------------------------------|
B-------------------------------------------------------------------------|
G-------------------------------------------------------------------------|
D-1-1-1-1-1-1-1-1-1-1-1-1-1-1-1-1-1-1-1-1-1-1-1-1-1-1-1-1-1-1-1-1-1-1-1-1-|
A-1-1-1-1-1-1-1-1-1-1-1-1-1-1-1-1-1-1-1-1-1-1-1-1-1-1-1-1-1-1-1-1-1-1-1-1-|
D-1-1-1-1-1-1-1-1-1-1-1-1-1-1-1-1-1-1-1-1-1-1-1-1-1-1-1-1-1-1-1-1-1-1-1-1-|

E-------------------|
B-------------------|
G-------------------|
D-7-0-0-7-0-0-0-0-0-|
A-7-0-0-7-0-0-0-0-0-|
D-7-0-0-7-0-0-0-0-0-|
PM  . .   . . . . .

E-------------------|
B-------------------|
G-------------------|
D-7-0-0-7-0-0-0-0-0-|
A-7-0-0-7-0-0-0-0-0-|
D-7-0-0-7-0-0-0-0-0-|
PM  . .   . . . . .

E-------------------|
B-------------------|
G-------------------|
D-7-0-0-7-0-0-0-0-0-|
A-7-0-0-7-0-0-0-0-0-|
D-7-0-0-7-0-0-0-0-0-|
PM  . .   . . . . .

E-----------------------------------|
B-----------------------------------|
G-------------------5-5-5-5---------|
D-7-0-0-7-0-0-0-0-0-5-5-5-5-4-4-4-4-|
A-7-0-0-7-0-0-0-0-0-3-3-3-3-4-4-4-4-|
D-7-0-0-7-0-0-0-0-0---------4-4-4-4-|
PM  . .   . . . . .

E-------------------|
B-------------------|
G-------------------|
D-7-0-0-7-0-0-0-0-0-|
A-7-0-0-7-0-0-0-0-0-|
D-7-0-0-7-0-0-0-0-0-|
PM  . .   . . . . .

E-------------------|
B-------------------|
G-------------------|
D-7-0-0-7-0-0-0-0-0-|
A-7-0-0-7-0-0-0-0-0-|
D-7-0-0-7-0-0-0-0-0-|
PM  . .   . . . . .

E-------------------|
B-------------------|
G-------------------|
D-7-0-0-7-0-0-0-0-0-|
A-7-0-0-7-0-0-0-0-0-|
D-7-0-0-7-0-0-0-0-0-|
PM  . .   . . . . .

E-----------------------------------|
B-----------------------------------|
G-------------------5-5-5-5---------|
D-7-0-0-7-0-0-0-0-0-5-5-5-5-4-4-4-4-|
A-7-0-0-7-0-0-0-0-0-3-3-3-3-4-4-4-4-|
D-7-0-0-7-0-0-0-0-0---------4-4-4-4-|
PM  . .   . . . . .

E-----------------------------------------------------------------|
B-----------------------------------------------------------------|
G-----------------------------------------5-5-5-5-----------------|
D-1-1-1-1-4-4-4-4-2-2-2-2-7-7-7-7-1-1-1-1-5-5-5-5-4-4-4-4-2-2-2-2-|
A-1-1-1-1-4-4-4-4-2-2-2-2-7-7-7-7-1-1-1-1-3-3-3-3-4-4-4-4-2-2-2-2-|
D-1-1-1-1-4-4-4-4-2-2-2-2-7-7-7-7-1-1-1-1---------4-4-4-4-2-2-2-2-|
PM. . . . . . . . . . . . . . . . . . . . . . . . . . . . . . . .

E-----------------------------------------------------------------|
B-----------------------------------------------------------------|
G-----------------------------------------5-5-5-5-----------------|
D-1-1-1-1-4-4-4-4-2-2-2-2-7-7-7-7-1-1-1-1-5-5-5-5-4-4-4-4-2-2-2-2-|
A-1-1-1-1-4-4-4-4-2-2-2-2-7-7-7-7-1-1-1-1-3-3-3-3-4-4-4-4-2-2-2-2-|
D-1-1-1-1-4-4-4-4-2-2-2-2-7-7-7-7-1-1-1-1---------4-4-4-4-2-2-2-2-|
PM. . . . . . . . . . . . . . . . . . . .

E-----------------------------------------------------------------|
B-----------------------------------------------------------------|
G-----------------------------------------5-5-5-5-----------------|
D-1-1-1-1-4-4-4-4-2-2-2-2-7-7-7-7-1-1-1-1-5-5-5-5-4-4-4-4-2-2-2-2-|
A-1-1-1-1-4-4-4-4-2-2-2-2-7-7-7-7-1-1-1-1-3-3-3-3-4-4-4-4-2-2-2-2-|
D-1-1-1-1-4-4-4-4-2-2-2-2-7-7-7-7-1-1-1-1---------4-4-4-4-2-2-2-2-|

E-----------------------------------------------------------------|
B-----------------------------------------------------------------|
G-----------------------------------------5-5-5-5-----------------|
D-1-1-1-1-4-4-4-4-2-2-2-2-7-7-7-7-1-1-1-1-5-5-5-5-4-4-4-4-2-2-2-2-|
A-1-1-1-1-4-4-4-4-2-2-2-2-7-7-7-7-1-1-1-1-3-3-3-3-4-4-4-4-2-2-2-2-|
D-1-1-1-1-4-4-4-4-2-2-2-2-7-7-7-7-1-1-1-1---------4-4-4-4-2-2-2-2-|

E-----------------------------------------------------------------|
B-----------------------------------------------------------------|
G-----------------------------------------5-5-5-5-----------------|
D-1-1-1-1-4-4-4-4-2-2-2-2-7-7-7-7-1-1-1-1-5-5-5-5-4-4-4-4-2-2-2-2-|
A-1-1-1-1-4-4-4-4-2-2-2-2-7-7-7-7-1-1-1-1-3-3-3-3-4-4-4-4-2-2-2-2-|
D-1-1-1-1-4-4-4-4-2-2-2-2-7-7-7-7-1-1-1-1---------4-4-4-4-2-2-2-2-|

E-----------------------------------------------------------------|
B-----------------------------------------------------------------|
G-----------------------------------------5-5-5-5-----------------|
D-1-1-1-1-4-4-4-4-2-2-2-2-7-7-7-7-1-1-1-1-5-5-5-5-4-4-4-4-2-2-2-2-|
A-1-1-1-1-4-4-4-4-2-2-2-2-7-7-7-7-1-1-1-1-3-3-3-3-4-4-4-4-2-2-2-2-|
D-1-1-1-1-4-4-4-4-2-2-2-2-7-7-7-7-1-1-1-1---------4-4-4-4-2-2-2-2-|

E-------------------|
B-------------------|
G---------5555------|
D-44441111555544441-
A-44441111333344441-
D-44441111----44441-

If there are any problems with the tab e-mail me and go easy on the comments people
its only my second tab.
Please Rate
Peace!
Tap to rate this tab
# A B C D E F G H I J K L M N O P Q R S T U V W X Y Z