Song name
# A B C D E F G H I J K L M N O P Q R S T U V W X Y Z

Leadfoot - Bring It On tab

i noticed that there is no tab for this great rock song!!! so here goes...

intro/main riff
|---------------------------------------------------------------------------|
|---------------------------------------------------------------------------|
|-------------5--3--3--3--3--3--3/5--5--5--5--3-----3-----3-----------------|
|--5----5--5--5--3--3--3--3--3--3/5--5--5--5--3-3-3-3-3-3-3-5---------------|
|--5----5--5--3--1--1--1--1--1--1/3--3--3--3--1-3-3-1-3-3-1-5---------------|
|--3----3--3------------------------------------1-1---1-1---3---------------|
                                 s                              back to start

verse
|---------------------------------------------------------------------------|
|---------------------------------------------------------------------------|
|--------------------------------------------5--3-3--5--3-------------------|
|--3/5-5--3/5-5--3/5-5--3/5-3--3/5-5--3/5-5--5--3-3--5--3-3-----------------|
|--3/5-5--3/5-5--3/5-5--3/5-3--3/5-5--3/5-5---------------3-----------------|
|---------------------------------------------------------------------------|
    s      s      s      s      s      s                         x2


chorus is the intro/main riff again


bridge
|--------------------------------------------------------------------------|
|--------------------------------------------------------------------------|
|--3~~~5~~~8~~~10-10--8--8---------3~~~5~~~8~~~101010101010----------------|
|--3~~~5~~~8~~~10-10--8--8---------3~~~5~~~8~~~101010101010----------------|
|--1~~~3~~~6~~~8--8---6--6---------1~~~3~~~6~~~888888888888----------------|
|--------------------------------------------------------------------------|
(let these chords ring)    x3 then            strum until solo

thats pretty much the whole song i think. the 3 solos are pretty basic stuff just G 
pentatonic rock. if i figure them out il put em up but heres the 1st lick from the intro 
solo so u get the idea...

|-----------------------------------3------------3--3--------3-------------|
|---------3h6p3--------3h6p3--6^6^----6-3----3-6------6p3------6p3---------|
|---5^5^---------5^5^---------------------5^--------------5^-------5^------|
|--------------------------------------------------------------------------|
|--------------------------------------------------------------------------|
|--------------------------------------------------------------------------|
                                                                     etc...

that sort of thing for the solos.


guide:
/  slide
^  bend
~  let ring
h  hammer on
p  pull off
http://www.myspace.com/leadfoot420   link to band site where u can hear the track itself
Tap to rate this tab
# A B C D E F G H I J K L M N O P Q R S T U V W X Y Z