Song name
# A B C D E F G H I J K L M N O P Q R S T U V W X Y Z

Leaf-fat - Amnesia tab

Amnesia
Leaf-Fat
Off the album Underworld Kingdom
tabbed by Matic Toni
matic.toni@siol.com


This is one of my favorite songs on underworld kingdom.
The guitar isn't too tricky so if you're having any trouble just work on it and you'll get it.
This tab isn't 100% perfect but its close enough that you won't be able to hear any difference.

Drop-D tuning

Intro

e-------------------------------------------------------------------------|
B-------------------------------------------------------------------------|
G--11-11-11-11-12-11--11-11-11-11--11-11-11-11-12-11-11-11-11-11---------|
D--9--9--9--9--9-9---9--9--9--9---9--9--9-9--9-9---9-9-9-9----------|
A-------------------------------------------------------------------------|
D-------------------------------------------------------------------------|

e-------------------------------------------------------------------------|
B-------------------------------------------------------------------------|
G--11-11-11-11-12-11--11-11-11-11--11-11-11-11-12-11-11-11-11-11---------|
D--9--9--9--9--9-9---9--9--9--9---9--9--9-9--9-9---9-9-9-9----------|
A-------------------------------------------------------------------------|
D-------------------------------------------------------------------------|

e-------------------------------------------------------------------------|
B-------------------------------------------------------------------------|
G-------------------------------------------------------------------------|
D--999-5555-222-4-12-12-11----999-5555-222-4-12-12-11---------------------|
A--999-5555-222-4-12-12-11----999-5555-222-4-12-12-11---------------------|
D--999-5555-222-4-12-12-11----999-5555-222-4-12-12-11---------------------|



Verse

e-------------------------------------------------------------------------|
B-------------------------------------------------------------------------|
G-------------------------------------------------------------------------|
D--9999999999-5555555555-2222222-44444444---------------------------------|
A--9999999999-5555555555-2222222-44444444---------------------------------|
D-9999999999-5555555555-2222222-44444444---------------------------------|



Chorus

e-------------------------------------------------------------------------|
B-------------------------------------------------------------------------|
G-------------------------------------------------------------------------|
D--9999999999-77777777-5555555555-44444444--------------------------------|
A--9999999999-77777777-5555555555-44444444--------------------------------|
D-9999999999-77777777-5555555555-44444444--------------------------------|





Ending

e-------------------------------------------------------------------------|
B-------------------------------------------------------------------------|
G--11-11-11-11-12-11--11-11-11-11--11-11-11-11-12-11-11-11-11-11---------|
D--9--9--9--9--9-9---9--9--9--9---9--9--9-9--9-9---9-9-9-9----------|
A-------------------------------------------------------------------------|
D-------------------------------------------------------------------------|

e-------------------------------------------------------------------------|
B-------------------------------------------------------------------------|
G--11-11-11-11-12-11--11-11-11-11--11-11-11-11-12-11-11-11-11-11---------|
D--9--9--9--9--9-9---9--9--9--9---9--9--9-9--9-9---9-9-9-9----------|
A-------------------------------------------------------------------------|
D-------------------------------------------------------------------------|
Tap to rate this tab
 
# A B C D E F G H I J K L M N O P Q R S T U V W X Y Z