Song name
# A B C D E F G H I J K L M N O P Q R S T U V W X Y Z

Leaf Hound - Too Many Rock N Roll Times tab

Hello, here is an easy one.
It just the riffs.
It's really easy to figure out the structure, so just jam along to the song.

Enjoy

Too Many Rock'n'Roll Times
Leaf Hound
Unleashed (2007)

Tabbed by Mads Yde aka. Ridder Lugtepik

Enjoy!

Main riff (A)
E--------------------|
B--------------------|
G--------------------|
D---7--5h7---7-------|
A-0--------0---3h5p0-|
E--------------------|

Then we move it up (A')
E--------------------|
B--------------------|
G---7--5h7---7-------|
D-0--------0---3h5p0-|
A--------------------|
E--------------------|

then the chords (B)
E--------------------------|
B--------------------------|
G--------------------------|
D-----9---9-9------7---7-7-|
A-0-0-7-0-7-7--0-0-5-0-5-5-|
E--------------------------|
Tap to rate this tab
# A B C D E F G H I J K L M N O P Q R S T U V W X Y Z