Song name
# A B C D E F G H I J K L M N O P Q R S T U V W X Y Z

Leaf Hound - Freelance Fiend tab

e----------------|
b----------------|
g----------------|
d------5---------|
a-5h7-7-7--------|
e---------7-3-00-|


e--------------|
b--------------|
g-77-77-777----|
d-77-77-777-75-|
a-55-55-555-75-|
e-----------53-|

I'm not going to even try to attempt to tab this solo out. its ridiculous. email me with 
questions at poop_sickle@msn.com
Tap to rate this tab
# A B C D E F G H I J K L M N O P Q R S T U V W X Y Z