Guitaretab - guitar tabs
Song name
# A B C D E F G H I J K L M N O P Q R S T U V W X Y Z
Home / L / Leaf / You Her tab

Leaf - You Her tab

This is my first tab. The song is from leaf, a dutch band from Utrecht. I really love it 
I just know the intro.

E -4----5----7----5----4----0-----------------------------|
B -5----5----5----5----5----0-----------------------------|
G -4----4----4----4----4----2-----------------------------|
D --------------------------2-----------------------------|
A --------------------------0-----------------------------|
E --------------------------------------------------------|
[ Tab from: ]
E -4----5----7----5----4-------------------0--------------|
B -5----5----5----5----5-------------------0--------------|
G -4----4----4----4----4--------------2----2--------------|
D -------------------------------2---------2--------------|
A --------------------------0-----------------------------|
E --------------------------------------------------------|

E -0--0--0--0--0--0--0--0--0--0--0--0--0--0--0--0---------|
B -0--0--0--0--0--0--0--0--0--0--0--0--0--0--0-----0------|
G -1--1--1--1--1--2--2--2--2--2--1--1--1--1--1--------1---|
D -2--2--2--2--2--2--2--2--2--2--2--2--2--2--2-----------2|
A -2--2--2--2--2--0--0--0--0--0--2--2--2--2--2------------|
E --------------------------------------------------------|
   Is it true.........

I'm almost 100% sure that this is correct, though I wonderd if someone could tab the 
of the song because I can't figure that out.

Related for You Her tab